Ads

As I Feel, You Feel (Final Fantasy V) Guitar Tab

Submitted: Aug 24, 2012 by JordanVS (Last updated: Aug 24, 2012)

4.75
Average: 4.8 (4 votes)
Download | Listen
Game: Final Fantasy V
Composer(s): Nobuo Uematsu
Style: Arrangement, Fingerstyle
Series: Final Fantasy

AutoScroll: Slow | Medium | Fast
As I Feel, You Feel                             
Legend of the Deep Forest
Final Fantasy V
Nobuo Uematsu                                                           
JordanVS

6/8 BPM=80


     Q.     Q.        Q.     Q.        Q.     Q.        Q    E  Q    E   
E||---------0------|---------0------|---------0------|-------5--3----0--|
B||--3-------------|--3-------------|--3-------------|--3---------------|
G||--2------2------|--2-------------|--2------2------|--2---------------|
D||--0-------------|--0------3------|--0-------------|--0-------3-------|
A||----------------|----------------|----------------|------------------|
E||--1-------------|--1-------------|--1-------------|--1---------------|


  Q.     Q.        H        E  E     Q.     Q    E     H.            
---------0------|-----------------|-----------------|---------------|
--3-------------|--0--------3--1--|--0--------------|--0------------|
--4-------------|-----------------|---------0----2--|---------------|
--2------2------|--2--------------|--2--------------|--2------------|
--3-------------|--3--------------|--3------3-------|--3------------|
----------------|-----------------|-----------------|---------------|


  E  E  E  E  E  E     E  E  E  E  E  E     E  E  E  E  E  E   
-----------0--------|-----------0--------|-----------0--------|
--3--------0--------|--3--------------0--|--3-----------------|
--2-----------2-----|--------2-----------|--2-----------2-----|
-----0--2--------0--|--2--------0--2-----|-----0--2--------0--|
--------------------|-----2--------------|-----------2--------|
--1-----------------|--1-----------------|--1-----------------|


  E  E  E  E  E  E     E  E  E  E  E  E     E  E  E  E  E  E   
--------5--3-----0--|-----------0--------|--------------------|
--3-----------------|--3-----------------|--0-----------3--1--|
--------0-----------|--0-----------0-----|--------0-----------|
--2--------------2--|-----0--2-----------|-----2-----0--2-----|
-----2-----2--3-----|--3--------2-----2--|--3--------------2--|
--1-----------------|--------------------|--------------------|


  E  E  E  Q    E     E  E  E  E  E  E     E  E  E  E  E  E   
-------------------|--------------------|--0--------1--------|
--0----------------|--0-----------------|-----------0--------|
--0--------0----2--|--------0-----------|--2-----------2-----|
-----------2----2--|--2--------------2--|-----0--2--------0--|
-----2--3----------|-----2-----2--3-----|--------------------|
-------------------|--------------------|--1-----------------|


  E  E  E  E  E  E     E  E  E  E  E  E     E  E  E  E  E  E   
--0--------1--------|--0--------1--------|--------1--0--------|
-----------------0--|--------------------|--3--------------3--|
--------2-----------|--1-----------1-----|--------1-----------|
--2--------0--2-----|-----0--2--------0--|--2--------0--2-----|
-----2--------------|-----------2--------|-----2-----------2--|
--------------------|--------------------|--0-----------------|


  E  E  E  E  E  E     E  E  E  E  E  E     E  E  E  E  E  E   
--0-----------------|--0--------3--------|--7-----------------|
-----------------0--|-----0--------------|--------------------|
--2-----------2-----|--------2-----------|--------------2-----|
-----0--2--------0--|--2--------0--2-----|-----0--2--------0--|
--0--------2--------|-----------------2--|--0--------2--------|
--------------------|--------------------|--------------------|


  E  E  E  E  E  E     Q.     Q.        Q.     Q.        Q.     Q.      
--5-----------------|--0------1------|--0------1------|--0------1------|
-----0--------------|----------------|----------------|----------------|
--------2-----------|--2-------------|--2-------------|--1-------------|
--2--------0--2-----|--0-------------|--0-------------|--0-------------|
-----------------2--|----------------|----------------|----------------|
--------------------|--1-------------|--1-------------|--1-------------|


  Q    E  Q    E     H        E  E     Q.     Q.        H.            
-------1--0-------|--0--------L-----|--0------3------|--7------------|
--3------------3--|--1--------L--0--|--1-------------|--8------------|
--1---------------|--2--------L-----|---------0------|---------------|
--0---------------|--------------0--|--2------2------|--9------------|
------------------|--3--------L-----|----------------|---------------|
--0---------------|-----------------|----------------|---------------|


  H        E  E     Q.     Q.        Q.     Q.        Q.     Q.      
--5--------------|---------0------|---------0------|---------0------|
--5--------3--1--|--3-------------|--3-------------|--3-------------|
-----------------|--2-------------|--2-------------|--2-------------|
-----------------|--0-------------|--0-------------|--0-------------|
--0--------------|----------------|----------------|----------------|
-----------------|--1-------------|--1-------------|--1-------------|


  Q    E  Q    E     Q.     Q.        H        E  E     Q.     Q    E   
-------5--3----0--|---------0------|-----------------|-----------------|
--3---------------|--3-------------|--0--------3--1--|--0--------------|
--2---------------|--4-------------|-----------------|---------0----2--|
--0---------------|--2-------------|--2--------------|--2--------------|
------------------|--3-------------|--3--------------|--3--------------|
--1---------------|----------------|-----------------|-----------------|


  ^              
  H.             
---------------||
--0------------||
--0------------||
--2------------||
--3------------||
---------------||




Duration Legend
---------------
W - whole
H - half
Q - quarter
E - 8th
. - note dotted


Tablature Legend
----------------
L - tied note
^ - brush up
v - brush down
Login or Register to remove this ad.