Ahead on Our Way (speedsamurai version) (Final Fantasy V) Guitar Tab

Submitted: Jun 06, 2010 by hslesperance (Last updated: Feb 20, 2011)

5
Average: 5 (2 votes)
Download | Listen
Game: Final Fantasy V
Composer(s): Nobuo Uematsu
Style: Arrangement, Transcription
Series: Final Fantasy

Click here for a video example.

AutoScroll: Slow | Medium | Fast
Ahead on Our Way (speedsamurai)
Final Fantasy V
Composed by Nobuo Uematsu
Arranged by Kyungwon Lee
Tabbed by hslesperance
5/2/10

Standard Tuning


e---------------------------------------------------------------
B---7--------------------7b9r----------/3--3--------------5-7---
G--------3--4/6-------------------------------------4-6-7-------
D---------------------------------------------------------------
A---------------------------------------------------------------
E---------------------------------------------------------------

e-----------------------------------7--9------------------------
B---7/10----9h10p9-------------7----------9h10p9----------------
G---------------------------9-----------------------------------
D---------------------------------------------------------------
A---------------------------------------------------------------
E---------------------------------------------------------------

e---------------------------------------------------------------
B---7--------------------7b9r----------/3--3------------------7-
G--------3--4/6-----------------------------------------6-7-9---
D-------------------------------------------------6-7-9---------
A---------------------------------------------------------------
E---------------------------------------------------------------

e------------------------------------------7--9--14-------------
B---7/10----9h10p9-------------9--7-----------------------------
G---------------------------9-----------------------------------
D---------------------------------------------------------------
A---------------------------------------------------------------
E---------------------------------------------------------------

e---9---------10/12----10---9h10p9-----9------------------------
B--------7-------------------------12-----9h10p9----------------
G---------------------------------------------------------------
D---------------------------------------------------------------
A---------------------------------------------------------------
E---------------------------------------------------------------

e-------9-------------------------------------------------------
B---12-----9h10p9--------------9--12--10h12p10------------------
G--------------------------11-------------------11--------------
D---------------------------------------------------------------
A---------------------------------------------------------------
E---------------------------------------------------------------

e--------------7h9----------10h12----10---9-----9---------------
B-------9--10-------------------------------12-----9h10p9-------
G---11----------------11----------------------------------------
D---------------------------------------------------------------
A---------------------------------------------------------------
E---------------------------------------------------------------

e------------7h9p7---------12b14r--10--9--9h10p9----------------
B-----7-9-10----------------------------------------------------
G---9-----------------9-----------------------------------------
D---------------------------------------------------------------
A---------------------------------------------------------------
E---------------------------------------------------------------

e---8b9rb9----8-7--------------9--7h9p7-------------------------
B-----------------10----7----------------------10----10h12p10---
G---------------------------9-----------------------------------
D---------------------------------------------------------------
A---------------------------------------------------------------
E---------------------------------------------------------------

e---------------------------------------------------------------
B---7--------------------7b9r----------/3--3--------------5-7---
G--------3--4/6-------------------------------------4-6-7-------
D---------------------------------------------------------------
A---------------------------------------------------------------
E---------------------------------------------------------------

e--------------------------------------7--9---------------------
B---7/10----9h10p9---------------------------9h10p9-------------
G---------------------------9--9h11-----------------------------
D---------------------------------------------------------------
A---------------------------------------------------------------
E---------------------------------------------------------------

e---------------------------------------------------------------
B---7--------------------7b9r----------/3--3------------------7-
G--------3--4/6-----------------------------------------6-7-9---
D-------------------------------------------------6-7-9---------
A---------------------------------------------------------------
E---------------------------------------------------------------

e------------------------------------------7--9--14-------------
B---7/10----9h10p9-------------9--7-----------------------------
G---------------------------9-----------------------------------
D---------------------------------------------------------------
A---------------------------------------------------------------
E---------------------------------------------------------------

e---9---------10/12----10---9h10p9-----9------------------------
B--------7-------------------------12-----9h10p9----------------
G---------------------------------------------------------------
D---------------------------------------------------------------
A---------------------------------------------------------------
E---------------------------------------------------------------

e-------9-------------------------------------------------------
B---12-----9h10p9--------------9--12--10h12p10------------------
G--------------------------11-------------------11--------------
D---------------------------------------------------------------
A---------------------------------------------------------------
E---------------------------------------------------------------

e--------------7h9----------10h12----10---9-----9---------------
B-------9--10-------------------------------12-----9h10p9-------
G---11----------------11----------------------------------------
D---------------------------------------------------------------
A---------------------------------------------------------------
E---------------------------------------------------------------

e------------7h9p7---------12b14r--10--9--9h10p9----------------
B-----7-9-10----------------------------------------------------
G---9-----------------9-----------------------------------------
D---------------------------------------------------------------
A---------------------------------------------------------------
E---------------------------------------------------------------

e---8b9rb9----8-7--------------9--7h9p7-------------------------
B-----------------10----7----------------------10---7-----------
G---------------------------9-----------------------------------
D---------------------------------------------------------------
A---------------------------------------------------------------
E---------------------------------------------------------------

Couldn't figure out 2:08 - 2:16 :(

2:17
e---9-------------------9-------------------------12-14-12------
B-----9-10-10b12rb12------10p9h10----10-9h10p9-------------15-14
G----------------------------------------------11---------------
D---------------------------------------------------------------
A---------------------------------------------------------------
E---------------------------------------------------------------

e-------------------------12----16----19-19-17p16-17------------
B---14h15p14-12--------------12----17-----------------15-14-15--
G-------------------11-13---------------------------------------
D----------------14---------------------------------------------
A---------------------------------------------------------------
E---------------------------------------------------------------

e---16b17r17\-------------19b20rb20r--17-19-21----17-19-------17
B----------------18-17-18----------------------21-------19-21---
G---------------------------------------------------------------
D---------------------------------------------------------------
A---------------------------------------------------------------
E---------------------------------------------------------------

e-----------------------10~-----------10/12----10--9h10p9-----9-
B---18-19-21----------------------------------------------12----
G------------18~---------------12-11----------------------------
D---------------------------------------------------------------
A---------------------------------------------------------------
E---------------------------------------------------------------

e-----------------------------------9---------------------------
B---9h10p9----------------L/12--12-----9h10p9--------L\----9-12-
G-------------------------------------------------------10------
D---------------------------------------------------------------
A---------------------------------------------------------------
E---------------------------------------------------------------

e--------------------------------------------------------12-----
B---10h12p10-------------------------9-10-12/14-----------------
G-------------11------------L\--9/11---------------11-----------
D---------------------------------------------------------------
A---------------------------------------------------------------
E---------------------------------------------------------------

e---10--9h10p9----9-----------------------------7h9p7-----------
B--------------12---9h10p9-----------------9-10-----------------
G-------------------------------------9-11---------------9------
D---------------------------------------------------------------
A---------------------------------------------------------------
E---------------------------------------------------------------

e---12b14r--10--12-9--------------------------------------------
B---------------------------------------15----------16b18----16-
G---------------------------------------------12----------------
D---------------------------------------------------------------
A---------------------------------------------------------------
E---------------------------------------------------------------

e---------------------------------------------------------------
B---------------------------------------------------------------
G---15h17p15--14--17--14h15p14--------------L/17-17-19-14h15p14-
D---------------------------------------------------------------
A---------------------------------------------------------------
E---------------------------------------------------------------

e---------------------------------------------------------------
B---------13---------------------------------13h15--------------
G---12-14-----15h17p15--12----------12-14-15----------12--------
D---------------------------------------------------------------
A---------------------------------------------------------------
E---------------------------------------------------------------

e---11/13----11--10h11p10----10---------------------------------
B-------------------------13----10h11p10------------------------
G-------------------------------------------------------12-14-15
D---------------------------------------------------------------
A---------------------------------------------------------------
E---------------------------------------------------------------

e----------------------13b15r--11--10-10h11p10------------------
B---13-13h15p13-------------------------------------------------
G---------------------------------------------------------------
D----------------15---------------------------------------------
A---------------------------------------------------------------
E---------------------------------------------------------------

e---------------------------------------------------------------
B---14b15--------11h13p11-----------------15-13h14p13-----------
G-------------------------12----12----11------------------------
D---------------------------------------------------------------
A---------------------------------------------------------------
E---------------------------------------------------------------

e----------------19b20r19b20--19b20-19b20r-16-16-18-------------
B---11----------------------------------------------18~--16-18--
G-------10h12p10------------------------------------------------
D---------------------------------------------------------------
A---------------------------------------------------------------
E---------------------------------------------------------------

e---16----------------------------------------------------------
B---------18-16-------16----------------------------------------
G---------------18-18----15~----13-15-13------------------------
D----------------------------------------15-13-13----13---------
A-------------------------------------------------16----16-13---
E-------------------------------------------------------------16

e---------------------------------------------------------------
B---------------------------------------------------------------
G-----------------------------------------------13~-------------
D----------------------13----------------------------------13---
A---13-----13-16-13-16----16-13----13----13---------------------
E-------16----------------------16----16----16------------------

h - hammer on
p - pull off
/ - slide up
\ - slide down
b - bend
r - release
~ - vibrato
Login or Register to remove this ad.

4 comments on Ahead on Our Way (speedsamurai version)

This sounds mysteriously

5

This sounds mysteriously similar to the Mintjam one.

hsl if you get a minute,

hsl if you get a minute, listen to this. It sounds like he's playing over it, but putting subtle changes in.

http://www.youtube.com/watch?v=OmbNCc1u_KM

Maybe the mintjam version was

Maybe the mintjam version was inspiration for his own?

Or it could be coincidence

I'm guessing he just decided

I'm guessing he just decided to play over it, and add some technique here and there. There's no way that's coincidence lol, with that solo and everything. But I mean, people do that. I also noticed his Ballacetine Castle video from Ys 3 is covering someone's arrangement of it, but it's spot on so whatever. lol