Ahead On Our Way (Final Fantasy V) Guitar Tab

Submitted: Dec 15, 2011 by BacardiBreezer

5
Average: 5 (2 votes)
Download | Listen
Game: Final Fantasy V
Composer(s): Nobuo Uematsu
Style: Alternate picking, Transcription
Series: Final Fantasy

This song is also called Final Fantasy V Main Theme

AutoScroll: Slow | Medium | Fast
Ahead On Our Way
Final Fantasy V
Composed by Nobuo Uematsu
Tabbed by Bacardibreezer
12/15/11

e|-------------------8~--|------------------------------|-------------8-----------------/10------|
B|-------8~----8-11------|--/8-------------10-8---------|----------8-----10~-------8--------10~--|
G|----10-----------------|-----------7~------------/8~--|--8-10----------------10----------------|
D|-10--------------------|------9-10--------------------|----------------------------------------|
A|-----------------------|------------------------------|----------------------------------------|
E|-----------------------|------------------------------|----------------------------------------|

e|----------------------------|----------------------------------|
B|--8-------------10-8--------|---------8---11---10~-------------|
G|----------7~-----------/8~--|--8-10--------------------8/10-12~|
D|-----9-10-------------------|----------------------------------|
A|----------------------------|----------------------------------|
E|----------------------------|----------------------------------|

e|-----------/13-------------------------|-----------------------------------------------|
B|--15--------------16--15--13--15-------|--13--15-------------------------13------------|
G|-------12-------------------------14~\-|-----------14~--------10/12--14------15--12~---|
D|---------------------------------------|-----------------------------------------------|
A|---------------------------------------|-----------------------------------------------|
E|---------------------------------------|-----------------------------------------------|

e|--------------------------13-------------------------|-----------15--13----13-------|
B|-----------------15--------------16--15--13--15------|--/13-------------16----15~---|
G|--12--14--15----------12-------------------------14~-|------10----------------------|
D|-----------------------------------------------------|------------------------------|
A|-----------------------------------------------------|------------------------------|
E|-----------------------------------------------------|------------------------------|

e|------------------------------------------------------|
B|--15~-----13------------------15-13~------------------|
G|--------------/15---12----11--------------15----15~---|
D|---------------------------------------------16-------|
A|------------------------------------------------------|
E|------------------------------------------------------|
Login or Register to remove this ad.

1 comment on Ahead On Our Way

Perfect tab

5

Perfect tab, nostalgic song!