Ahead on Our Way (Final Fantasy V) Guitar Tab

Submitted: Jun 01, 2010 by Asa

5
Average: 5 (1 vote)
Download | Listen
Game: Final Fantasy V
Composer(s): Nobuo Uematsu
Style: Alternate picking, Transcription
Series: Final Fantasy

Click here for a video example.

AutoScroll: Slow | Medium | Fast
Ahead on Our Way
Final Fantasy V
Nobuo Uematsu
FFV OSV Disc 1 - Track 1

Tabbed by Aj Franks


     H        Q    E  S S    W                   H.           E  S S    W                 
E||-----------------------|-------------------|--------------------6-|--8----------------|
B||---------------------6-|--8----------------|--L---------------8---|-------------------|
G||-------------------5---|-------------------|----------------------|-------------------|
D||-----------------------|-------------------|----------------------|-------------------|
A||-----------------------|-------------------|----------------------|-------------------|
E||-----------------------|-------------------|----------------------|-------------------|


    H        Q     Q       H.            Q       W                   H        Q     Q     
|-----------------------|---------------------|-------------------|----------------------|
|---8-------------------|---------------10----|--8----------------|----------------------|
|*----------------------|--7------------------|-------------------|--8--------8----10----|
|*-----------9----10----|---------------------|-------------------|----------------------|
|-----------------------|---------------------|-------------------|----------------------|
|-----------------------|---------------------|-------------------|----------------------|


  H        H            H.            Q       H         H            W                 
-----------8--------|----------------------|-----------10--------|--------------------|
--8-----------------|--10------------------|--8------------------|--10----------------|
--------------------|----------------10----|---------------------|--------------------|
--------------------|----------------------|---------------------|--------------------|
--------------------|----------------------|---------------------|--------------------|
--------------------|----------------------|---------------------|--------------------|


  H        Q     Q       H.            Q       W                   H        Q     Q     
----------------------|---------------------|-------------------|----------------------|
--8-------------------|---------------10----|--8----------------|----------------------|
----------------------|--7------------------|-------------------|--8--------8----10----|
-----------9----10----|---------------------|-------------------|----------------------|
----------------------|---------------------|-------------------|----------------------|
----------------------|---------------------|-------------------|----------------------|


  H         H            H.            Q       W                   W                 
---------------------|----------------------|-------------------|-------------------|
--8--------11--------|--10------------------|--8----------------|--L----------------|
---------------------|----------------10----|-------------------|-------------------|
---------------------|----------------------|-------------------|-------------------|
---------------------|----------------------|-------------------|-------------------|
---------------------|----------------------|-------------------|-------------------|


   H        H            H         Q     Q       Q     Q     H           W                 
--10-----------------|--13--------11----10----|--8----10--------------|-------------------|
------------8--------|------------------------|-------------10--------|--L----------------|
---------------------|------------------------|-----------------------|-------------------|
---------------------|------------------------|-----------------------|-------------------|
---------------------|------------------------|-----------------------|-------------------|
---------------------|------------------------|-----------------------|-------------------|


  Q     Q     H           Q    Q     Q     Q        Q    H.              Q    Q     Q     Q     
--8----10--------------|------------------------|---------------------|------------------------|
-------------10--------|--L----8----10----13----|--11----8------------|-------8----10----11----|
-----------------------|------------------------|---------------------|------------------------|
-----------------------|------------------------|---------------------|------------------------|
-----------------------|------------------------|---------------------|------------------------|
-----------------------|------------------------|---------------------|------------------------|


   H        H            H         Q     Q       Q     Q     H           W                 
--10-----------------|--13--------11----10----|--8----10--------------|-------------------|
------------8--------|------------------------|-------------10--------|--L----------------|
---------------------|------------------------|-----------------------|-------------------|
---------------------|------------------------|-----------------------|-------------------|
---------------------|------------------------|-----------------------|-------------------|
---------------------|------------------------|-----------------------|-------------------|


   H         H            Q     Q     Q     Q        W                   W                 
----------------------|--15----13----11----13----|--10----------------|--L----------------|
--13------------------|--------------------------|--------------------|-------------------|
------------10--------|--------------------------|--------------------|-------------------|
----------------------|--------------------------|--------------------|-------------------|
----------------------|--------------------------|--------------------|-------------------|
----------------------|--------------------------|--------------------|-------------------|


   H.           Q        H        H            Q     Q    H           H         Q    Q     
--10------------8----|---------------------|--------10----8--------|--L-------------------|
---------------------|--11--------8--------|-----------------------|-----------11----7----|
---------------------|---------------------|--11-------------------|----------------------|
---------------------|---------------------|-----------------------|----------------------|
---------------------|---------------------|-----------------------|----------------------|
---------------------|---------------------|-----------------------|----------------------|


   W                   W                   W                   W                   
--------------------|-------------------|-------------------|--------------------||
--11----------------|--L----------------|--L----------------|--------------------||
--------------------|-------------------|-------------------|-------------------*||
--------------------|-------------------|-------------------|-------------------*||
--------------------|-------------------|-------------------|--------------------||
--------------------|-------------------|-------------------|--------------------||
Login or Register to remove this ad.

1 comment on Ahead on Our Way

Nice tab

5

Nice tab