Ads

Under the Stars (Final Fantasy Tactics) Bass/Guitar Tab

Submitted: Oct 24, 2015 by Jacob31593 (Last updated: Oct 24, 2015)

5
Average: 5 (1 vote)
Download | Listen
Game: Final Fantasy Tactics
Composer(s): Hitoshi Sakimoto, Masaharu Iwata
Style: 2 or more instruments, Arrangement, Transcription
Series: Final Fantasy

AutoScroll: Slow | Medium | Fast

Under the Stars
Composed by Masaharu Iwata
Tabbed by Jacob31593
October 24th 2015

this is one of those songs that doesnt seem like it should be a battle theme but turns out to be a fantastic battle theme
115bpm

Guitar 1
                                                                               H        H         
E||-------||--------|-------|-------|-------|-------|-------|-------|-------|--------------------|
B||-------||--------|-------|-------|-------|-------|-------|-------|-------|--------------------|
G||-------||*-------|-------|-------|-------|-------|-------|-------|-------|--9-----------------|
D||-------||*-------|-------|-------|-------|-------|-------|-------|-------|-----------9--------|
A||-------||--------|-------|-------|-------|-------|-------|-------|-------|--------------------|
E||-------||--------|-------|-------|-------|-------|-------|-------|-------|--------------------|


  Q    E   E   E  E   E   E     Q.      E   H           H.           Q       Q.      E   H         
-------------------------10--|--9--------------------|--------------------|-----------------------|
---------------------12------|---------10--12--------|--L-----------------|-----------------------|
-------9--11--12--9----------|-----------------------|--------------------|--9------11--12--------|
--L--------------------------|-----------------------|--------------------|-----------------------|
-----------------------------|-----------------------|--------------------|-----------------------|
-----------------------------|-----------------------|--------------------|-----------------------|


  Q    E   E   Q     E   E      Q.      E   H           H.           Q       H        H         
------------------------10--|------------------------|--------------------|--------------------|
--------------------10------|--12------10--12--------|--L------------L----|--------------------|
--L----9--11--12------------|------------------------|--------------------|--9-----------------|
----------------------------|------------------------|--------------------|-----------9--------|
----------------------------|------------------------|--------------------|--------------------|
----------------------------|------------------------|--------------------|--------------------|


  Q    E   E   E  E   E   E     Q.      E   H           H.           Q       Q.      E   H         
-------------------------10--|--9------10------------|--------------------|-----------------------|
---------------------12------|-------------12--------|--L-----------------|-----------------------|
-------9--11--12--9----------|-----------------------|--------------------|--9------11--12--------|
--L--------------------------|-----------------------|--------------------|-----------------------|
-----------------------------|-----------------------|--------------------|-----------------------|
-----------------------------|-----------------------|--------------------|-----------------------|


  Q    E   E   E  E   E   E      Q.      E   H           H.           Q        E   E   E   E   Q     Q     
-------------------------10--|--12------10--12--------|--L-----------------|------------------13----12----|
---------------------12------|------------------------|--------------------|------------------------------|
--L----9--11--12--9----------|------------------------|--------------------|--12--14--15--12--------------|
-----------------------------|------------------------|--------------------|------------------------------|
-----------------------------|------------------------|--------------------|------------------------------|
-----------------------------|------------------------|--------------------|------------------------------|


   H.            Q        W                                        E   E   E   E   Q     Q     
----------------------|--------------------|-------------------|------------------13----15----|
--15------------13----|--15----------------|-------------------|------------------------------|
----------------------|--------------------|-------------------|--12--14--15--12--------------|
----------------------|--------------------|-------------------|------------------------------|
----------------------|--------------------|-------------------|------------------------------|
----------------------|--------------------|-------------------|------------------------------|


   H.            Q        W                                        W                    W                 
----------------------|--------------------|-------------------|--------------------|--------------------|
--16------------15----|--16----------------|-------------------|--13----------------|--13----------------|
----------------------|--------------------|-------------------|--------------------|--------------------|
----------------------|--------------------|-------------------|--------------------|--------------------|
----------------------|--------------------|-------------------|--------------------|--------------------|
----------------------|--------------------|-------------------|--------------------|--------------------|


   H         H            H         H            H.            E   E      Q.      Q.      Q     
----------------------|----------------------|------------------------|------------------18----|
--13--------16--------|--13--------15--------|--16------------13--15--|--16------19------------|
----------------------|----------------------|------------------------|------------------------|
----------------------|----------------------|------------------------|------------------------|
----------------------|----------------------|------------------------|------------------------|
----------------------|----------------------|------------------------|------------------------|


   H         H            W                 5x
--20--------18--------|--17-----------------||
----------------------|---------------------||
----------------------|--------------------*||
----------------------|--------------------*||
----------------------|---------------------||
----------------------|---------------------||

Flutar
  
                E   E   E   E   E   E   E   E      E   E   E   E   E   E   E   E   
E||-------||---24--19--22--17--20------19------|----------------------------------|
B||-------||-----------------------20------19--|--22--17--20--15--19------17------|
G||-------||*----------------------------------|----------------------17------14--|
D||-------||*----------------------------------|----------------------------------|
A||-------||-----------------------------------|----------------------------------|
E||-------||-----------------------------------|----------------------------------|


   E   E   E   E   E   E   E   E      E   E   E   E   E   E   E   E      E   E   E   E   E   E   E   E   
----------------------------------|----------------------------------|--24--19--22--17--20------19------|
----------15--------------12------|----------------------------------|----------------------20------19--|
--16--16------14--17--12------11--|--14------12------11--------------|----------------------------------|
----------------------------------|------14------12------10--14------|----------------------------------|
----------------------------------|------------------------------12--|----------------------------------|
----------------------------------|----------------------------------|----------------------------------|


   E   E   E   E   E   E   E   E      E   E   E   E   E   E   E   E      E   E   E   E   E   E   E   E   
----------------------------------|----------------------------------|----------------------------------|
--22--17--20--15--19------17------|----------15--------------12------|----------------------------------|
----------------------17------14--|--16--16------14--17--12------11--|--14------12------11--------------|
----------------------------------|----------------------------------|------14------12------10--14------|
----------------------------------|----------------------------------|------------------------------12--|
----------------------------------|----------------------------------|----------------------------------|


   E   E   E   E   E   E   E   E      E   E   E   E   E   E   E   E      E   E   E   E   E   E   E   E   
--24--19--22--17--20------19------|----------------------------------|----------------------------------|
----------------------20------19--|--22--17--20--15--19------17------|----------15--------------12------|
----------------------------------|----------------------17------14--|--16--16------14--17--12------11--|
----------------------------------|----------------------------------|----------------------------------|
----------------------------------|----------------------------------|----------------------------------|
----------------------------------|----------------------------------|----------------------------------|


   E   E   E   E   E   E   E   E      E   E   E   E   E   E   E   E      E   E   E   E   E   E   E   E   
----------------------------------|--24--19--22--17--20------19------|----------------------------------|
----------------------------------|----------------------20------19--|--22--17--20--15--19------17------|
--14------12------11--------------|----------------------------------|----------------------17------14--|
------14------12------10--14------|----------------------------------|----------------------------------|
------------------------------12--|----------------------------------|----------------------------------|
----------------------------------|----------------------------------|----------------------------------|


   E   E   E   E   E   E   E   E      E   E   E   E   E   E   E   E      E   E   E   E   E   E   E   E   
----------------------------------|----------------------------------|--24--19--22--17--20------19------|
----------15--------------12------|----------------------------------|----------------------20------19--|
--16--16------14--17--12------11--|--14------12------11--------------|----------------------------------|
----------------------------------|------14------12------10--14------|----------------------------------|
----------------------------------|------------------------------12--|----------------------------------|
----------------------------------|----------------------------------|----------------------------------|


   E   E   E   E   E   E   E   E      E   E   E   E   E   E   E   E      E   E   E   E   E   E   E   E   
----------------------------------|----------------------------------|----------------------------------|
--22--17--20--15--19------17------|----------15--------------12------|----------------------------------|
----------------------17------14--|--16--16------14--17--12------11--|--14------12------11--------------|
----------------------------------|----------------------------------|------14------12------10--14------|
----------------------------------|----------------------------------|------------------------------12--|
----------------------------------|----------------------------------|----------------------------------|


   E   E   E   E   E   E   E   E      E   E   E   E   E   E   E   E      E   E   E   E   E   E   E   E   
--24--19--22--17--20------19------|----------------------------------|----------------------------------|
----------------------20------19--|--22--17--20--15--19------17------|----------15--------------12------|
----------------------------------|----------------------17------14--|--16--16------14--17--12------11--|
----------------------------------|----------------------------------|----------------------------------|
----------------------------------|----------------------------------|----------------------------------|
----------------------------------|----------------------------------|----------------------------------|


   E   E   E   E   E   E   E   E                 Q     E   E   E   E   E   E   
----------------------------------|-----|-----|-------18--17--18--15--22--25--|
----------------------------------|-----|-----|-------------------------------|
--14------12------11--------------|-----|-----|-------------------------------|
------14------12------10--14------|-----|-----|-------------------------------|
------------------------------12--|-----|-----|-------------------------------|
----------------------------------|-----|-----|-------------------------------|


   E   E   E   E   E   E   E   E                               Q     E   E   E   E   E   E   
--24--20--22--18--20--17--18--15--|-----|-------------------|-------15--17--18--15--23--25--|
----------------------------------|-----|-------------------|-------------------------------|
----------------------------------|-----|-------------------|-------------------------------|
----------------------------------|-----|-------------------|-------------------------------|
----------------------------------|-----|-------------------|-------------------------------|
----------------------------------|-----|-------------------|-------------------------------|


     PH    PH    PH    PH                                                          
     E     E     E     E   E   E   E   E                                           
--<>15--<>18--<>17--<>15--25--22--23--22--|-------------------|-------------------|
------------------------------------------|-------------------|-------------------|
------------------------------------------|-------------------|-------------------|
------------------------------------------|-------------------|-------------------|
------------------------------------------|-------------------|-------------------|
------------------------------------------|-------------------|-------------------|


                                     PH                                                                   
  Q     E   E   E   E   E   E        W                                       Q     E   E   E   E  E   E   
-------15--17--18--15--23--25--|--<>15----------------|-------------------|--------------------------11--|
-------------------------------|----------------------|-------------------|-------13--16--16--13---------|
-------------------------------|----------------------|-------------------|------------------------------|
-------------------------------|----------------------|-------------------|------------------------------|
-------------------------------|----------------------|-------------------|------------------------------|
-------------------------------|----------------------|-------------------|------------------------------|


   H         H            W                 5x
--11--------15--------|--14-----------------||
----------------------|---------------------||
----------------------|--------------------*||
----------------------|--------------------*||
----------------------|---------------------||
----------------------|---------------------||


Harptar

     H        Q    T T  T T  T T T  T      E  E   E   E  E  E  E  E     E  E   E   E  E  E  E  E   
E||----------------------------7-8-10-||------7------10-----7-----7--|-----7------10-----7-----7--|
B||-----------------------8-10--------||---------10------8-----7-----|--------10------8-----7-----|
G||----------------7-9-11-------------||*--9-------------------------|--9-------------------------|
D||-----------------------------------||*----------------------------|----------------------------|
A||-----------------------------------||-----------------------------|----------------------------|
E||-----------------------------------||-----------------------------|----------------------------|


  E  E   E   E  E  E  E  E     E  E   E   E  E  E  E  E     E  E   E   E  E  E  E  E   
-----7------10-----7-----7--|-----7------10-----7-----7--|-----7------10-----7-----7--|
--------10------8-----7-----|--------10------8-----7-----|--------10------8-----7-----|
--9-------------------------|--9-------------------------|--9-------------------------|
----------------------------|----------------------------|----------------------------|
----------------------------|----------------------------|----------------------------|
----------------------------|----------------------------|----------------------------|


  E  E   E   E  E  E  E  E     E  E   E   E  E  E  E  E     E  E   E   E  E  E  E  E   
-----7------10-----7-----7--|-----7------10-----7-----7--|-----7------10-----7-----7--|
--------10------8-----7-----|--------10------8-----7-----|--------10------8-----7-----|
--9-------------------------|--9-------------------------|--9-------------------------|
----------------------------|----------------------------|----------------------------|
----------------------------|----------------------------|----------------------------|
----------------------------|----------------------------|----------------------------|


  E  E   E   E  E  E  E  E     E  E   E   E  E  E  E  E     E  E   E   E  E  E  E  E   
-----7------10-----7-----7--|-----7------10-----7-----7--|-----7------10-----7-----7--|
--------10------8-----7-----|--------10------8-----7-----|--------10------8-----7-----|
--9-------------------------|--9-------------------------|--9-------------------------|
----------------------------|----------------------------|----------------------------|
----------------------------|----------------------------|----------------------------|
----------------------------|----------------------------|----------------------------|


  E  E   E   E  E  E  E  E     E  E   E   E  E  E  E  E     E  E   E   E  E  E  E  E   
-----7------10-----7-----7--|-----7------10-----7-----7--|-----7------10-----7-----7--|
--------10------8-----7-----|--------10------8-----7-----|--------10------8-----7-----|
--9-------------------------|--9-------------------------|--9-------------------------|
----------------------------|----------------------------|----------------------------|
----------------------------|----------------------------|----------------------------|
----------------------------|----------------------------|----------------------------|


  E  E   E   E  E  E  E  E     E  E   E   E  E  E  E  E     E  E   E   E  E  E  E  E   
-----7------10-----7-----7--|-----7------10-----7-----7--|-----7------10-----7-----7--|
--------10------8-----7-----|--------10------8-----7-----|--------10------8-----7-----|
--9-------------------------|--9-------------------------|--9-------------------------|
----------------------------|----------------------------|----------------------------|
----------------------------|----------------------------|----------------------------|
----------------------------|----------------------------|----------------------------|


  E  E   E   E  E  E  E  E     E  E   E   E  E  E  E  E     E  E   E   E  E  E  E  E   
-----7------10-----7-----7--|-----7------10-----7-----7--|-----7------10-----7-----7--|
--------10------8-----7-----|--------10------8-----7-----|--------10------8-----7-----|
--9-------------------------|--9-------------------------|--9-------------------------|
----------------------------|----------------------------|----------------------------|
----------------------------|----------------------------|----------------------------|
----------------------------|----------------------------|----------------------------|


  E  E   E   E  E  E  E  E     E  E   E   E  E  E  E  E     E  E   E   E  E  E  E  E   
-----7------10-----7-----7--|-----7------10-----7-----7--|-----7------10-----7-----7--|
--------10------8-----7-----|--------10------8-----7-----|--------10------8-----7-----|
--9-------------------------|--9-------------------------|--9-------------------------|
----------------------------|----------------------------|----------------------------|
----------------------------|----------------------------|----------------------------|
----------------------------|----------------------------|----------------------------|


                |-3|  |--3--|  |--3--|  |--3--|                                                   
  E  E   E   E  E  S  S  S  S  S  S  S  S  S  S     E                                             
-----7------10----------------12-14-15-17-19-20-|--22--|-----|-----|-----|-----|-----|-----|-----|
--------10------7--8-10-12-15-------------------|------|-----|-----|-----|-----|-----|-----|-----|
--9---------------------------------------------|------|-----|-----|-----|-----|-----|-----|-----|
------------------------------------------------|------|-----|-----|-----|-----|-----|-----|-----|
------------------------------------------------|------|-----|-----|-----|-----|-----|-----|-----|
------------------------------------------------|------|-----|-----|-----|-----|-----|-----|-----|


   E   E   E   E   E   E   E   E      E   E   E   E   E   E   E   E      E   E   E   E   E   E   E   E   
------15------18------15------15--|------15------18------15------15--|------15------18------15------15--|
----------18------16------15------|----------18------16------15------|----------18------16------15------|
--15------------------------------|--15------------------------------|--15------------------------------|
----------------------------------|----------------------------------|----------------------------------|
----------------------------------|----------------------------------|----------------------------------|
----------------------------------|----------------------------------|----------------------------------|


   E   E   E   E   E   E   E   E      E                     5x
------15------18------------------|------|-----|-----|------||
----------18------15--------------|------|-----|-----|------||
--15------------------10--15--10--|--13--|-----|-----|-----*||
----------------------------------|------|-----|-----|-----*||
----------------------------------|------|-----|-----|------||
----------------------------------|------|-----|-----|------||


Oboetar

               W                    W                     W                     W                  
E||-------||---------------------|--------------------|---------------------|---------------------|
B||-------||---------------------|--------------------|--12~----------------|--12~----------------|
G||-------||*--9~----------------|--9~----------------|---------------------|---------------------|
D||-------||*--------------------|--------------------|---------------------|---------------------|
A||-------||---------------------|--------------------|---------------------|---------------------|
E||-------||---------------------|--------------------|---------------------|---------------------|


   W                     W                     W                     W                     W                  
---------------------|---------------------|---------------------|---------------------|---------------------|
---------------------|---------------------|--12~----------------|--12~----------------|---------------------|
--12~----------------|--12~----------------|---------------------|---------------------|--12~----------------|
---------------------|---------------------|---------------------|---------------------|---------------------|
---------------------|---------------------|---------------------|---------------------|---------------------|
---------------------|---------------------|---------------------|---------------------|---------------------|


   W                     W                     W                     W                     W                  
---------------------|---------------------|---------------------|---------------------|---------------------|
---------------------|--12~----------------|--12~----------------|---------------------|---------------------|
--12~----------------|---------------------|---------------------|--12~----------------|--12~----------------|
---------------------|---------------------|---------------------|---------------------|---------------------|
---------------------|---------------------|---------------------|---------------------|---------------------|
---------------------|---------------------|---------------------|---------------------|---------------------|


   W                     W                     W                     W                     W                  
---------------------|---------------------|---------------------|---------------------|---------------------|
--12~----------------|--12~----------------|---------------------|---------------------|--12~----------------|
---------------------|---------------------|--12~----------------|--12~----------------|---------------------|
---------------------|---------------------|---------------------|---------------------|---------------------|
---------------------|---------------------|---------------------|---------------------|---------------------|
---------------------|---------------------|---------------------|---------------------|---------------------|


   W                     W                     W                     W                     W                  
---------------------|---------------------|---------------------|---------------------|---------------------|
--12~----------------|---------------------|---------------------|--12~----------------|--12~----------------|
---------------------|--12~----------------|--12~----------------|---------------------|---------------------|
---------------------|---------------------|---------------------|---------------------|---------------------|
---------------------|---------------------|---------------------|---------------------|---------------------|
---------------------|---------------------|---------------------|---------------------|---------------------|


  H        Q    Q       Q    Q    Q    Q       W                   W                   H        Q    Q     
---------------------|----------------------|-------------------|-------------------|---------------------|
---------------------|-----------------6----|--8----------------|--8----------------|---------------------|
---------------------|-------5----7---------|-------------------|-------------------|---------------------|
-----------5----7----|--8-------------------|-------------------|-------------------|-----------5----7----|
---------------------|----------------------|-------------------|-------------------|---------------------|
---------------------|----------------------|-------------------|-------------------|---------------------|


  Q    Q    Q    Q       Q    H.              H        H           H        Q    Q       H.           Q     
----------------------|--------------------|--------------------|---------------------|--6------------5----|
----------------------|--6----8------------|--8--------6--------|----------------6----|--------------------|
-------5----7----8----|--------------------|--------------------|--5--------8---------|--------------------|
--8-------------------|--------------------|--------------------|---------------------|--------------------|
----------------------|--------------------|--------------------|---------------------|--------------------|
----------------------|--------------------|--------------------|---------------------|--------------------|


  W                   H        Q    E  E     H.           E  E     Q.      Q.      Q     
-------------------|----------------------|---------------------|-----------------------|
--8----------------|--8--------6----------|---------------------|-----------------11----|
-------------------|----------------5--7--|--8------------5--7--|--8------11------------|
-------------------|----------------------|---------------------|-----------------------|
-------------------|----------------------|---------------------|-----------------------|
-------------------|----------------------|---------------------|-----------------------|


   H         H            W                 5x
----------------------|---------------------||
--13--------11--------|--10-----------------||
----------------------|--------------------*||
----------------------|--------------------*||
----------------------|---------------------||
----------------------|---------------------||

Rhythm

               W                   W                   W                   H        H         
E||-------||--------------------|-------------------|-------------------|--------------------|
B||-------||--------------------|-------------------|-------------------|--------------------|
G||-------||*--9----------------|--L----------------|--9----------------|--L--------7--------|
D||-------||*--9----------------|--L----------------|--9----------------|--L--------7--------|
A||-------||---7----------------|--L----------------|--7----------------|--L--------5--------|
E||-------||---7----------------|--L----------------|--7----------------|--L--------5--------|


  W                   W                   W                   H        H           W                 
-------------------|-------------------|-------------------|--------------------|-------------------|
-------------------|-------------------|-------------------|--------------------|-------------------|
--5----------------|--L----------------|--5----------------|--L--------7--------|--9----------------|
--5----------------|--L----------------|--5----------------|--L--------7--------|--9----------------|
--3----------------|--L----------------|--3----------------|--L--------5--------|--7----------------|
--3----------------|--L----------------|--3----------------|--L--------5--------|--7----------------|


  W                   W                   H        H           W                   W                 
-------------------|-------------------|--------------------|-------------------|-------------------|
-------------------|-------------------|--------------------|-------------------|-------------------|
--L----------------|--9----------------|--L--------7--------|--5----------------|--L----------------|
--L----------------|--9----------------|--L--------7--------|--5----------------|--L----------------|
--L----------------|--7----------------|--L--------5--------|--3----------------|--L----------------|
--L----------------|--7----------------|--L--------5--------|--3----------------|--L----------------|


  W                   H        H           W                   W                   W                 
-------------------|--------------------|-------------------|-------------------|-------------------|
-------------------|--------------------|-------------------|-------------------|-------------------|
--5----------------|--L--------7--------|--9----------------|--L----------------|--9----------------|
--5----------------|--L--------7--------|--9----------------|--L----------------|--9----------------|
--3----------------|--L--------5--------|--7----------------|--L----------------|--7----------------|
--3----------------|--L--------5--------|--7----------------|--L----------------|--7----------------|


  H        H           W                   W                   W                   H        H         
--------------------|-------------------|-------------------|-------------------|--------------------|
--------------------|-------------------|-------------------|-------------------|--------------------|
--L--------7--------|--5----------------|--L----------------|--5----------------|--L--------7--------|
--L--------7--------|--5----------------|--L----------------|--5----------------|--L--------7--------|
--L--------5--------|--3----------------|--L----------------|--3----------------|--L--------5--------|
--L--------5--------|--3----------------|--L----------------|--3----------------|--L--------5--------|


  H        H           H        H           H        H           H        H           H        H         
--------------------|--------------------|--------------------|--------------------|--------------------|
--------------------|--------------------|--------------------|--------------------|--------------------|
--------------------|--------------------|--------------------|--------------------|--------------------|
--5--------5--------|--5--------5--------|--5--------5--------|--5--------3--------|--1--------1--------|
--------------------|--------------------|--5--------5--------|--5--------3--------|--------------------|
--------------------|--------------------|--------------------|--------------------|--------------------|


  H        H           H        H           H        H           H        H           H        H         
--------------------|--------------------|--------------------|--------------------|--------------------|
--------------------|--------------------|--------------------|--------------------|--------------------|
--------------------|--------------------|--------------------|--------------------|--------------------|
--1--------1--------|--1--------1--------|--1--------0--------|--------------------|--------------------|
--------------------|--1--------1--------|--1--------0--------|--3--------3--------|--3--------3--------|
--------------------|--------------------|--------------------|--3--------3--------|--3--------3--------|


  H        H           H        H           H        H           H        Q    Q       H        H         
--------------------|--------------------|--------------------|---------------------|--------------------|
--------------------|--------------------|--------------------|---------------------|--------------------|
--------------------|--------------------|--------------------|---------------------|--0-----------------|
--------------------|--------------------|--------------------|----------------1----|--0-----------------|
--3--------3--------|--3--------1--------|--6--------6--------|--2--------2----1----|-----------5--------|
--3--------3--------|--3--------1--------|--4--------4--------|--2--------2---------|-----------3--------|


  W                 5x
--------------------||
--------------------||
-------------------*||
--0----------------*||
--0-----------------||
--------------------||


Bass

     H        H             W                   W                   W                   H        H         
G||--------------------||--------------------|-------------------|-------------------|--------------------|
D||-----------0--------||*--2----------------|--2----------------|--2----------------|--2--------0--------|
A||--------------------||*-------------------|-------------------|-------------------|--------------------|
E||--------------------||--------------------|-------------------|-------------------|--------------------|


  W                   W                   W                   H        H           W                 
-------------------|-------------------|-------------------|--------------------|-------------------|
-------------------|-------------------|-------------------|-----------0--------|--2----------------|
--3----------------|--3----------------|--3----------------|--3-----------------|-------------------|
-------------------|-------------------|-------------------|--------------------|-------------------|


  W                   W                   H        H           W                   W                 
-------------------|-------------------|--------------------|-------------------|-------------------|
--2----------------|--2----------------|--2--------0--------|-------------------|-------------------|
-------------------|-------------------|--------------------|--3----------------|--3----------------|
-------------------|-------------------|--------------------|-------------------|-------------------|


  W                   H        H           W                   W                   W                 
-------------------|--------------------|-------------------|-------------------|-------------------|
-------------------|-----------0--------|--2----------------|--2----------------|--2----------------|
--3----------------|--3-----------------|-------------------|-------------------|-------------------|
-------------------|--------------------|-------------------|-------------------|-------------------|


  H        H           W                   W                   W                   H        H         
--------------------|-------------------|-------------------|-------------------|--------------------|
--2--------0--------|-------------------|-------------------|-------------------|--------------------|
--------------------|--3----------------|--3----------------|--3----------------|--3--------5--------|
--------------------|-------------------|-------------------|-------------------|--------------------|


  H        H           H        H           H        H           H        H           H        H         
--------------------|--------------------|--------------------|--------------------|--------------------|
--5--------5--------|--5--------5--------|--5--------5--------|--5--------3--------|--1--------1--------|
--------------------|--------------------|--------------------|--------------------|--------------------|
--------------------|--------------------|--------------------|--------------------|--------------------|


  H        H           H        H           H        H           H        H           H        H         
--------------------|--------------------|--------------------|--------------------|--------------------|
--1--------1--------|--1--------1--------|--1--------0--------|--------------------|--------------------|
--------------------|--------------------|--------------------|--3--------3--------|--3--------3--------|
--------------------|--------------------|--------------------|--------------------|--------------------|


  H        H           H        H           H        H           H        Q    Q       H        H         
--------------------|--------------------|--------------------|---------------------|--0-----------------|
--------------------|--------------------|--------------------|----------------1----|--------------------|
--3--------3--------|--3--------1--------|--------------------|--2--------2---------|--------------------|
--------------------|--------------------|--4--------4--------|---------------------|-----------3--------|


  W                 5x
--------------------||
--0----------------*||
-------------------*||
--------------------||




Duration Legend
---------------
W - whole
H - half
Q - quarter
E - 8th
S - 16th
T - 32nd
. - note dotted

Tablature Legend
----------------
L - tied note
Login or Register to remove this ad.