Enemy Attack (Final Fantasy Tactics) Guitar Tab

Submitted: Jan 08, 2019 by chiqueto_x (Last updated: Jan 11, 2019)

0
Download | Listen
Game: Final Fantasy Tactics
Composer(s): Hitoshi Sakimoto, Masaharu Iwata
Style: 2 or more instruments, Arrangement
Series: Final Fantasy

AutoScroll: Slow | Medium | Fast
     PM      PM  PM PM           PM          PM       PM     PM       PM       PM    
E||-----------------------------------|---------------------------------------------|
B||-----------------------------------|---------------------------------------------|
G||-----------------------------------|------------------------------------3--------|
D||--------------------4---4----------|--4--------5---------------4--------1--------| 2X
A||--0-------0---0--0--2---2-----0----|--2---0----3---0------0----2---0--------0----|
E||-----------------------------------|---------------------------------------------|

                              PM      PM  PM PM           PM          PM       PM     PM       PM       PM    
|--------------------------|-----------------------------------|---------------------------------------------|
|--------------------------|-----------------------------------|---------------------------------------------|
|--3-------5-------7-------|-----------------------------------|------------------------------------3--------|
|--1-------3-------5-------|--------------------4---4----------|--4--------5---------------4--------1--------|
|--------------------------|--0-------0---0--0--2---2-----0----|--2---0----3---0------0----2---0--------0----|
|--------------------------|-----------------------------------|---------------------------------------------|


  PM      PM  PM PM           PM          PM       PM     PM       PM       PM                               
-----------------------------------|---------------------------------------------|--------------------------|
-----------------------------------|---------------------------------------------|--------------------------|
-----------------------------------|---------------------------------------------|--3-------5-------7-------|
--------------------4---4----------|--4--------5---------------4--------1--------|--1-------3-------5-------|
--0-------0---0--0--2---2-----0----|--2---0----3---0------0----2---0--------0----|--------------------------|
-----------------------------------|---------------------------------------------|--------------------------|

--------------L--------L---|--13~----L----12-13-15--13-12-13S--17--|--18--17-15-17~--------L-----|-------------------|---------------|
---------------------------|---------------------------------------|-----------------------------|-------------------|---------------|
--7-------8-------10-------|---------------------------------------|-----------------------------|-------------------|---------------|
--5-------6--------8-------|---------------------------------------|-----------------------------|-------------------|---------------|
---------------------------|---------------------------------------|-----------------------------|-------------------|---------------|
---------------------------|---------------------------------------|-----------------------------|-------------------|---------------|

--13~----L----12-13-15--13-12-13--17--|--18--17-15-17S--24--24------23~----|---------------L-----|-------------------|---------------|
--------------------------------------|-------------------------22---------|---------------------|-------------------|---------------|
--------------------------------------|------------------------------------|---------------------|-------------------|---------------|
--------------------------------------|------------------------------------|---------------------|-------------------|---------------|
--------------------------------------|------------------------------------|---------------------|-------------------|---------------|
--------------------------------------|------------------------------------|---------------------|-------------------|---------------|


                             PM      PM  PM PM           PM          PM       PM     PM       PM       PM      PM      PM  PM PM           PM    

--------------------------|-----------------------------------|---------------------------------------------|-----------------------------------|
--------------------------|-----------------------------------|---------------------------------------------|-----------------------------------|
--------------------------|-----------------------------------|------------------------------------3--------|-----------------------------------|
--5-------7-------8-------|--------------------4---4----------|--4--------5---------------4--------1--------|--------------------4---4----------|
--3-------5-------6-------|--0-------0---0--0--2---2-----0----|--2---0----3---0------0----2---0--------0----|--0-------0---0--0--2---2-----0----|
--------------------------|-----------------------------------|---------------------------------------------|-----------------------------------|

      PM       PM     PM       PM       PM                                
---------------------------------------------|--------------------------|
---------------------------------------------|--------------------------|
------------------------------------3--------|--3-------5-------7-------| 2x 
--4--------5---------------4--------1--------|--1-------3-------5-------|
--2---0----3---0------0----2---0--------0----|--------------------------|
---------------------------------------------|--------------------------|

|---------------------------|
|--7-------8-------10-------|
|--5-------6--------8-------|
|---------------------------|
|---------------------------|
                                              

Login or Register to remove this ad.