Rock Theme (Final Fantasy Mystic Quest) Bass/Guitar Tab

Submitted: Nov 02, 2009 by RexLeRouge (Last updated: Apr 05, 2010)

0
Download | Listen
Game: Final Fantasy Mystic Quest
Composer(s): Y. Kawakami
Style: 2 or more instruments, Alternate picking, Transcription
Series: Final Fantasy

AutoScroll: Slow | Medium | Fast
                       Final Fantasy Mystic Quest - Rock Theme                                    
                             Music by Yasuhiro Kawakami

                                Tabbed by RexLeRouge




Mélodie
      Q    Q    E  E  E  E     E  E  H        Q       Q    Q    E  E  E  E   
E||-------------------------|----------------------|---------------------5--|
B||--------6----6--5-----3--|-----5--5-------------|-------6----6--5--------|
G||*------------------------|----------------------|------------------------|
D||*------------------------|----------------------|------------------------|
A||-------------------------|----------------------|------------------------|
E||-------------------------|----------------------|------------------------|


                                 |--3--|  |--3-|           
  E  E  H        Q          Q    S  S  S  S  S S H           W                 4x
-----------------------||---------------------------------|--------------------||
-----8--8--------------||--------9p-8h-9p-8h-9------------|--------------------||
----------------------*||*--------------------------------|-------------------*||
----------------------*||*--------------------------------|-------------------*||
-----------------------||---------------------------------|--------------------||
-----------------------||---------------------------------|--------------------||




Harmonie
      Q    Q    E  E  E  E     E  E  H        Q       Q    Q    E  E  E  E   
E||-------------------------|----------------------|------------------------|
B||-------------------------|----------------------|---------------------6--|
G||*-------7----7--5-----4--|-----5--5-------------|-------7----7--5--------|
D||*------------------------|----------------------|------------------------|
A||-------------------------|----------------------|------------------------|
E||-------------------------|----------------------|------------------------|


                                 |--3--|  |--3-|           
  E  E  H        Q          Q    S  S  S  S  S S H           W                 4x
-----------------------||---------------------------------|--------------------||
-----------------------||--------9p-8h-9p-8h-9------------|--------------------||
-----9--9-------------*||*--------------------------------|-------------------*||
----------------------*||*--------------------------------|-------------------*||
-----------------------||---------------------------------|--------------------||
-----------------------||---------------------------------|--------------------||




Guitare
      Q    H.              W                   Q    H.            
E||---------------------|-------------------|--------------------|
B||---------------------|-------------------|--------------------|
G||*--5-----------------|-------------------|--5-----------------|
D||*--5-----------------|-------------------|--5-----------------|
A||---3-----------------|-------------------|--3-----------------|
E||---------------------|-------------------|--------------------|


  W                      Q    H.              W                 4x
--------------------||---------------------|--------------------||
--------------------||---------------------|--------------------||
-------------------*||*--5-----------------|-------------------*||
-------------------*||*--5-----------------|-------------------*||
--------------------||---3-----------------|--------------------||
--------------------||---------------------|--------------------||




Basse
      E  E  E.  S E  E  E  E     E  E  E.  S Q    Q     
G||---------------------3--5--|-----5------------------|
D||*--------5---3-5-----------|--------5-----3----5----|
A||*--3--3-----------3--------|------------3-----------|
E||---------------------------|------------------------|


  E  E  E.  S E  E  E  E     E  E  E.  S S  S S S S  S S S    
--------------------3--5--|-----5---------------------------||
--------5---3-5-----------|--------5-----3-15-3---5-17-5---*||
--3--3-----------3--------|------------3-------------------*||
--------------------------|---------------------------------||


   E  E  E.  S E  E  E  E     E  E  E.  S Q    Q     4x
---------------------3--5--|-----5-------------------||
*--------5---3-5-----------|--------5-----3----5----*||
*--3--3-----------3--------|------------3-----------*||
---------------------------|-------------------------||





Duration Legend
---------------
W - whole
H - half
Q - quarter
E - 8th
S - 16th
T - 32nd
X - 64th
. - note dotted
|-n-|  - n-tuplets


Tablature Legend
----------------
h - hammer on
p - pull off


Login or Register to remove this ad.