City of Forest, Forestia (Final Fantasy Mystic Quest) Bass Tab

Submitted: Mar 28, 2010 by RexLeRouge (Last updated: Mar 28, 2010)

0
Download | Listen
Game: Final Fantasy Mystic Quest
Composer(s): Y. Kawakami
Style: Transcription
Series: Final Fantasy

This song is also called Windaria

AutoScroll: Slow | Medium | Fast
                          City of Forest - Forestia                             


Basse
      W                   W                   W                 
G||--------------------|-------------------|-------------------|
D||*--5----------------|--4----------------|--2----------------|
A||*-------------------|-------------------|-------------------|
E||--------------------|-------------------|-------------------|


  H        E  E  E  E     W                   W                 
-----------------------|-------------------|-------------------|
--0--------L--0--2--4--|--5----------------|--4----------------|
-----------------------|-------------------|-------------------|
-----------------------|-------------------|-------------------|


  W                   H        H           H        H         
-------------------|--2-----------------|-----------6--------|
--2----------------|--------------------|--5-----------------|
-------------------|-----------0--------|--------------------|
-------------------|--------------------|--------------------|


  H        H           H        H           H        E  E  E  E   
-----------4--------|-----------3--------|-----------------------|
--4-----------------|--2-----------------|--0--------L--0--2--4--|
--------------------|--------------------|-----------------------|
--------------------|--------------------|-----------------------|


  H        H           H        H           H        H         
-----------6--------|-----------4--------|-----------3--------|
--5-----------------|--4-----------------|--2-----------------|
--------------------|--------------------|--------------------|
--------------------|--------------------|--------------------|


  W                   H        H           H.           E  E   
-------------------|--2-----------------|------------------4--|
--0----------------|-----------0--------|--5------------L-----|
-------------------|--------------------|---------------------|
-------------------|--------------------|---------------------|


  H        H           H.           E  E     H        H         
--6-----------------|--4------------L-----|--2-----------------|
-----------4--------|------------------2--|-----------0--------|
--------------------|---------------------|--------------------|
--------------------|---------------------|--------------------|


  H.           E  E     W                   H        H           
---------------------|-------------------|--2--------2---------||
--5------------L--4--|--2----------------|--------------------*||
---------------------|-------------------|--------------------*||
---------------------|-------------------|---------------------||




Duration Legend
---------------
W - whole
H - half
Q - quarter
E - 8th
S - 16th
. - note dotted


Tablature Legend
----------------
L - tied note
Login or Register to remove this ad.