City of Fire "Faeria" (Final Fantasy Mystic Quest) Bass Tab

Submitted: Mar 29, 2010 by RexLeRouge

0
Download | Listen
Game: Final Fantasy Mystic Quest
Composer(s): Y. Kawakami
Style: Transcription
Series: Final Fantasy

AutoScroll: Slow | Medium | Fast
                       City of Fire - Faeria
                             


Basse
      E  S S E  S S S S S S S S E     E  S S E  S S S S S S S S E   
G||----------7--------------7------|---------6--------------6------|
D||*--5----5------5---5---5-----5--|--4----4------4---4---4-----4--|
A||*-------------------------------|-------------------------------|
E||--------------------------------|-------------------------------|


  E  S S E  S S S S S S S S E     E  S S E  S S S S S S S S S S    
---------4--------------4------|---------------------------------||
--2----2------2---2---2-----2--|---------7------------------4---*||
-------------------------------|--5----5------5---5---5-7-5---5-*||
-------------------------------|---------------------------------||


  Q    Q    E  E  E  E       E  S S E  S S S S S S S S E   
--2---------------------||----------7------------------2--|
------------------------||*--5----5----------------3------|
-------0----0--0--0--0--||*--------------4---4---4--------|
------------------------||--------------------------------|


  E  S S E  S S S S S S S S E     E  S S E  S S S S S S S S E   
---------6---------------------|---------4---------------------|
--4----4--------------------4--|--2----2--------------------2--|
------------------------6------|------------------------4------|
--------------7---7---7--------|--------------6---6---6--------|


  E  S S E  S S S S S S S S S S      E  S S E  S S S S S S S S E   
---------------------------------||-------------------------------|
---------7------------------4---*||---------7--------------7------|
--5----5------5---5---5-7-------*||--5----5------5---5---5-----5--|
---------------------------------||-------------------------------|


    E  S S E  S S S S S S S S S S    E  S S E  S S S S S S S S S S  
|---------------------------------|---------7--------------7-------|
|*------------------------7-------|--5----5------5---5---5-----5---|
|*---------7----5---5---5-----5---|--------------------------------|
|---5----5------------------------|--------------------------------|


  E  S S E  S S S S S S S S S S    E  S S E  S S S S S S S S S S    
------------------------3-------|---------------------------------||
---------5----4---4---4-----4---|---------4--------------4-------*||
--4----4------------------------|--2----2------2---2---2-----2---*||
--------------------------------|---------------------------------||


  E  S S E  S S S S S S S S S S    E  S S E  S S S S S S S S S S  
---------7--------------7-------|---------4--------------4-------|
--5----5------5---5---5-----4---|--2----2------2---2---2-----2---|
--------------------------------|--------------------------------|
--------------------------------|--------------------------------|


  Q    Q    E  E  E  E    
--2---------------------||
------------------------||
-------0----0--0--0--0--||
------------------------||




Duration Legend
---------------
W - whole
H - half
Q - quarter
E - 8th
S - 16th
T - 32nd
X - 64th
. - note dotted
|-n-|  - n-tuplets

Login or Register to remove this ad.