Ads

Beautiful Forest (Final Fantasy Mystic Quest) Guitar Tab

Submitted: Dec 18, 2009 by diralark

5
Average: 5 (1 vote)
Download | Listen
Game: Final Fantasy Mystic Quest
Composer(s): Y. Kawakami
Style: Arrangement, Fingerstyle
Series: Final Fantasy

AutoScroll: Slow | Medium | Fast
                     Final Fantasy Mystic Quest - Beautiful Forest             
                                    Yasuhiro Kawakami


Easy tab for guitar beginners, most advanced guitarist can add slide & hammer effect to improove the groove (^^)



      Q.     E  E  E  E  E     E  E  E  Q    E  E  E   
E||-------------------------|----------------------0--|
B||-------------------0-----|--3-------------1--3-----|
G||*---------1-----------2--|-----------2-------------|
D||*---------------2--------|--------2----------2-----|
A||----------2--3-----------|--0--3-------------------|
E||-------------------------|-------------------------|


  E  E  E  Q    E  E  E     E  E  E  Q    E  E  E     E  E  E  E  E  E  E  E   
-------------------------|-------------------------|--------------------------|
--0----------------0--1--|-------------------------|--------------------0-----|
-----------1----2--------|--0--------0-------0--2--|-----------1-----------2--|
--------2----------2-----|--------2-------4--2-----|--2-----2--------2--------|
--0--3-------------------|--0--3-------------------|--0--3-----2--3-----------|
-------------------------|-------------------------|--------------------------|


  E  E  E  Q    E  E  E     E  E  E  Q    E  E  E     E  E  E  Q    E  E  E   
----------------------0--|-------------------------|-------------------------|
--3-------------1--3-----|--0----------------0--1--|-------------------------|
-----------2-------------|-----------1----2--------|--0--------0-------0--2--|
--------2----------2-----|--------2----------2-----|--------2-------4--2-----|
--0--3-------------------|--0--3-------------------|--0--3-------------------|
-------------------------|-------------------------|-------------------------|


  E  E  E  E  E  E  E  E     E  E  E  Q    E  E  E     E  E  E  Q    E  E  E   
--------------------------|--0----------------0--1--|--3-------------1--0--1--|
--------------------1-----|-----------1----3--1-----|-----------0-------0-----|
-----------1-----2-----2--|--------2----------------|--------1----------------|
--2-----2--2--3-----------|--0--3-------------------|--0--3-------------------|
--0--3--------------------|-------------------------|-------------------------|
--------0-----------------|-------------------------|-------------------------|


  E  E  E  Q    E  E  E     E  E  E  E  E  E  E  E     E  E  E  Q    E  E  E   
--0----------------------|--------------------------|--0----------------0--1--|
----------------3--1--3--|--1-----------------1-----|-----------1----3--1-----|
-----------2-------------|-----------1-----2-----2--|--------2----------------|
--------2----------2-----|--------2--2--3-----------|--0--3-------------------|
--0--3-------------------|--0--3--------------------|-------------------------|
-------------------------|--------0-----------------|-------------------------|


  E  E  E  Q    E  E  E     E  E  E  Q    E  E  E     E  E  E  Q    E  E  E   
--3-------------1--0-----|-------------------------|-------------------------|
-----------0-------0-----|--0----------------------|-------------------------|
--------1-------------1--|-----------2-------------|-----------2-------------|
--0--3-------------------|--------2----------2-----|--------2----------2-----|
-------------------------|--0--3----------3-----3--|--0--3----------3--------|
-------------------------|-------------------------|----------------------0--|


  E  E  E  E  E  E  E  E     E  E  E  E  E  E  E  E     E  E  E  E  Q    Q     
--------------------0--1--|--3-----------------------|--1---------------------|
--------0--1--3-----------|--------------1-----------|-------------------0----|
--2--2--------------------|--------0-----0-----------|--------------3---------|
--------------------------|-----2-----2--------2-----|-----0--3--0------------|
-----------------2--------|--3--------------3-----3--|--2-----------1---------|
--1-----------3-----------|--------------------------|------------------------|


  E  E  E  E  E  E  E  E     E  E  E  E  E  E  E  E   
--------------------------|--------------------0--1--|
--3-----------1-----------|--------0--1--3-----------|
--------------2-----------|--2--2--------------------|
-----0--2--0-----2--------|--------------------------|
--0-----------------3--2--|-----------------2--------|
--------------------------|--1-----------3-----------|


  E  E  E  E  E  E  E  E      E  E  E  E  E  E  E  E     Q.     E  E  E  E  E   
--3-----------5-----8-----|--10-----------5-----------|--7---------------------|
--------------------------|---------------------------|------------------0-----|
--------0-----2-----5-----|---------------------------|------------------------|
-----2-----2-----2--------|------0-----0--7--0--4--0--|---------------------7--|
--3--------------------7--|---------9-----------------|--7------------7--------|
--------------------------|---7-----------------------|--0------7--8-----------|


  ^                        ^                        ^                      
  Q    E  Q    E  E  E     Q    E  Q    E  E  E     Q    E  Q    E  E  E   
---------------------0--|------------------------|------------------------|
---------------1--3-----|--0---------------0--1--|------------------------|
--7---------------------|--2------------2--------|--0---------------0--2--|
------------------------|------------------------|---------------4--------|
--0-------0-------------|--0---------------------|--0---------------------|
-------0----------------|-------0--4-------------|-------0--3-------------|


  ^                         ^                        ^                      
  Q    E  E  E  E  E  E     Q    E  Q    E  E  E     Q    E  Q    E  E  E   
-------------------------|---------------------0--|------------------------|
-------------------0-----|--3------------1--3-----|--0---------------0--1--|
----------------------2--|------------------------|--2------------2--------|
--2-------------2--------|------------------------|------------------------|
--2-------2--3-----------|--0-------0-------------|--0---------------------|
--0----0--4--------------|-------0----------------|-------0--4-------------|


  ^                        ^                                                 
  Q    E  Q    E  E  E     Q    E  E  E  E  E  E     E  E  E  Q    E  E  E   
------------------------|-------------------------|--0----------------0--1--|
------------------------|-------------------1-----|----------------3--------|
--0---------------0--2--|----------------2-----2--|-------------------------|
---------------4--------|--2-------2--3-----------|--0----------------------|
--0---------------------|--2----------------------|--------0--3-------------|
-------0--3-------------|--0----0--4--------------|-----1-------------------|


                            ^                        ^                       
  E  E  E  Q    E  E  E     Q    E  Q    E  E  E     Q    E  E  E  E  E  E   
--3-------------1--0--1--|--0---------------------|-------------------------|
-------------------------|---------------3--1--3--|--1----------------1-----|
-------------------------|------------------------|----------------2-----2--|
--3----------------------|--0---------------------|----------2--3-----------|
--------0--2-------------|----------0-------------|----------0--------------|
-----1-------------------|-------0----------------|--0----0-----------------|


                                                      ^                    
  E  E  E  Q    E  E  E     E  E  E  Q    E  E  E     Q    E  H        E   
--0----------------0--1--|--3-------------1--0-----|----------------------|
----------------3--------|-------------------------|--0-------------------|
-------------------------|----------------------2--|----------------------|
--3----------------------|--3----------------------|--2-------------------|
--------0--3-------------|--------0--2-------------|----------0--------L--|
-----1-------------------|-----1-------------------|-------0--------------|


  E  E  E  H        E     E  E  E  E  Q    E  E     H        H         
-----------------------|-------------------0--1--|--3-----------------|
-----------------------|--------0--1--3----------|-----------1--------|
-----------------------|--2--2-------------------|--------------------|
-----------------------|--0----------------------|--------------------|
--------------------L--|-------------------------|-----------0--------|
--------0--4-----------|--------------3----------|--0-----------------|


  H        Q    Q       H        H           E  E  E  E  Q    E  E   
--1------------------|--------------------|-------------------0--1--|
----------------0----|--3--------1--------|--------0--1--3----------|
-----------3---------|--------------------|--2--2-------------------|
---------------------|-----------2--------|--0----------------------|
---------------------|--0-----------------|-------------------------|
--1--------0---------|--------------------|--------------3----------|


  H        Q    Q        H         H           Q.     H        E     
--3--------5----8----|--10------------------|--7-------------------||
---------------------|------------10--------|----------------------||
---------------------|----------------------|---------------------*||
-----------4---------|----------------------|---------------------*||
---------------------|----------------------|--7-------------------||
--0------------------|---7------------------|--0-------------------||




Duration Legend
---------------
W - whole
H - half
Q - quarter
E - 8th
S - 16th
T - 32nd
X - 64th
. - note dotted
|-n-|  - n-tuplets

Login or Register to remove this ad.

8 comments on Beautiful Forest

Love it!

5

Mystic Quest gets a lot of grief from many 'hardcore' Final Fantasy fans, but as someone who's played them all I still love the game.

This is a great song from its soundtrack and your tab does it great justice.

Thank you!

Well I dont know this game

Well I dont know this game anyway yep its a cute vg tune. btw half part of job was done by RexLeRouge (the 2nd part of the tab), he posted before me a 2 guitar version http://www.gametabs.net/final-fantasy-mystic-quest/beautiful-forest wich gave me envy to make a solo version with ^^
oh just noticed I forgot to write his name in .tab file as I did in others, well I share now your thanks with him. Happy u appreciate our tab ^^

i have a question how do i

i have a question how do i play these kinds of guitar sheets im starting out and im kind of confused on how i play these sheets i see these a lot i'd appreciate the help thanks :D

Each line corresponds to a

Each line corresponds to a string, the top is the thinnest (high e) and the bottom is the thickest (low e). Each number corresponds to a fret on the respective string. For example, if you see B---12---, you play the second thinnest string on the 12th fret, which is the one with the 2 dots.

Unless you meant how to you play 2 or more strings at once? Just practice practice.

well that actually still

well that actually still helped me but yeah i kind of meant how to play 2 strings like the first line has 1 on the g string and 2 on the A string is that a chord i just play?

Use your fingers to pluck the

Use your fingers to pluck the strings, rather than a pick.

ooooo that's why its called

ooooo that's why its called fingerpicking xD lol so i play it like a chord with my figners? :O

watch the master :

watch the master : https://www.youtube.com/user/lonlonjp/videos & learn from him ^^