Beautiful Forest (Final Fantasy Mystic Quest) Bass/Guitar Tab

Submitted: Dec 08, 2009 by RexLeRouge (Last updated: Apr 05, 2010)

5
Average: 5 (1 vote)
Download | Listen
Game: Final Fantasy Mystic Quest
Composer(s): Y. Kawakami
Style: 2 or more instruments, Alternate picking, Transcription
Series: Final Fantasy

AutoScroll: Slow | Medium | Fast
                             Beautiful Forest                                 


Mélodie
     Q.     E  E  E  E  E       H        E   E  E  E     H        E  E  E   E   
E||------------------------||-------------------------|------------------------|
B||------------------------||-------------------------|------------------------|
G||------------------------||*--7--------L------7--9--|------------------------|
D||------------------9--7--||*--------------10--------|--9--------L--7--9--10--|
A||---------------7--------||-------------------------|------------------------|
E||---------7--8-----------||-------------------------|------------------------|


   H        E  E   E  E     Q.     E  E  E  E  E     H        E   E  E  E   
-------------------------|------------------------|------------------------|
-------------------------|------------------------|------------------------|
-------------------------|------------------------|--7--------L------7--9--|
----------------------7--|------------------9--7--|--------------10--------|
--10--------L--9--10-----|--7------------7--------|------------------------|
-------------------------|---------7--8-----------|------------------------|


  H        E  E  E   E      H        E  E   E  E     Q.     E  E  E   E  E   
------------------------|-------------------------|-------------------------|
------------------------|-------------------------|-------------------------|
------------------------|-------------------------|-------------------------|
--9--------L--7--9--10--|----------------------7--|---------------7--10--7--|
------------------------|--10--------L--9--10-----|--7------7--8------------|
------------------------|-------------------------|-------------------------|


  H        E  E  E   E     H        E   E  E   E     H        E  E   E  E   
------------------------|-------------------------|------------------------|
------------------------|--8--------L-------------|------------------------|
--9--------L--7--9--10--|--------------10--9--10--|--9--------L--7------7--|
------------------------|-------------------------|-----------------10-----|
------------------------|-------------------------|------------------------|
------------------------|-------------------------|------------------------|


   Q.     E  E  E   E  E     H        E  E  E   E     H        E   E  E  E   
--------------------------|------------------------|------------------------|
--------------------------|------------------------|--8--------L------------|
--------------------------|--9--------L--7--9--10--|--------------10--9-----|
--10------------7--10--7--|------------------------|---------------------7--|
----------7--8------------|------------------------|------------------------|
--------------------------|------------------------|------------------------|


  W                   W                   E  E  E   E  Q    E   E   
-------------------|-------------------|---------------------------|
-------------------|-------------------|---------------------------|
-------------------|-------------------|---------------7----9--10--|
--9----------------|-------------------|--7--7--9--10--------------|
-------------------|-------------------|---------------------------|
-------------------|-------------------|---------------------------|


  H         H            H        Q    Q       H         H         
---------------------|----------------------|---------------------|
--8------------------|----------------------|---------------------|
---------------------|--10------------------|--7------------------|
-----------10--------|------------8----9----|-----------10--------|
---------------------|----------------------|---------------------|
---------------------|----------------------|---------------------|


  E  E  E   E  Q    E   E     H         Q    Q        H         H         
---------------------------|-----------------8----|--10------------------|
---------------------------|--8--------10---------|------------10--------|
---------------7----9--10--|----------------------|----------------------|
--7--7--9--10--------------|----------------------|----------------------|
---------------------------|----------------------|----------------------|
---------------------------|----------------------|----------------------|


  Q.     E  E  E  E  E     
--7----------------------||
-------------------------||
------------------------*||
------------------9--7--*||
---------------7---------||
---------7--8------------||


                          

                          Beautiful Forest                                 


Basse
     W                     E  E  E  E  H           E  E  E  E  H         
G||-------------------||------------------------|-----------------------|
D||-------------------||*-----------7--L--------|-----------6--L--------|
A||-------------------||*--------7--------------|--------7--------------|
E||-------------------||---5--8-----------------|--5--8-----------------|


  E  E  E  E  H           E  E  E  E  H           E  E  E  E  H         
-----------------------|-----------------------|-----------------------|
-----------5--L--------|-----------6--L--------|-----------7--L--------|
--------7--------------|--------7--------------|--------7--------------|
--5--8-----------------|--5--8-----------------|--5--8-----------------|


  E  E  E  E  H           E  E  E  E  H           E  E  E  E  H         
-----------------------|-----------------------|-----------------------|
-----------6--L--------|-----------5--L--------|-----------6--L--------|
--------7--------------|--------7--------------|--------7--------------|
--5--8-----------------|--5--8-----------------|--5--8-----------------|


  E  E  E  E  H           E  E  E  E  H           E  E  E  E  H         
-----------5--L--------|-----------4--L--------|-----------------------|
--------7--------------|--------7--------------|-----------7--L--------|
--5--8-----------------|--5--8-----------------|--------7--------------|
-----------------------|-----------------------|--5--8-----------------|


  E  E  E  E  H           E  E  E  E  H           E  E  E  E  H         
-----------------------|-----------5--L--------|-----------4--L--------|
-----------7--L--------|--------7--------------|--------7--------------|
--------7--------------|--5--8-----------------|--5--8-----------------|
--5--8-----------------|-----------------------|-----------------------|


  E  E  E  E  H           E  E  E  E  H           H        H         
-----------------------|-----------------------|--------------------|
-----------7--L--------|-----------7--L--------|-----------5--------|
--------7--------------|--------7--------------|--5-----------------|
--5--8-----------------|--5--8-----------------|--------------------|


  H        H           H        H           H        H         
--------------------|--------------------|--------------------|
--------------------|--------------------|--------------------|
--------------------|-----------7--------|--------------------|
--8--------5--------|--7-----------------|--5--------5--------|


  H        H           H        H           H        H         
--------------------|--------------------|--------------------|
-----------5--------|--------------------|--------------------|
--5-----------------|--------------------|-----------5--------|
--------------------|--8--------5--------|--7-----------------|


  W                   
--------------------||
-------------------*||
--7----------------*||
--------------------||




Duration Legend
---------------
W - whole
H - half
Q - quarter
E - 8th
S - 16th
T - 32nd
X - 64th
. - note dotted
|-n-|  - n-tuplets
Login or Register to remove this ad.

3 comments on Beautiful Forest

I like it

5

I love this tune, its romantic & fresh. I quickly merged these 2 instruments tracks to solo guitar track & oh... It sounds great too ^^ Ty for this nice tab, i really like play it with guitar

wow, it sound great! you

wow, it sound great! you should post it
and thank you ^^

your 2 instruments version is

5

your 2 instruments version is really nice & I simply used your work, modifying just a bit. Well i ll submit soon a most advanced version on wip forum coz i want add again some more notes to find best harmony i can find (as in the PM i sent u). I think this melody is able to sounds great on solo guitar. Also maybe wip forum permit best guitarists to modify these added notes & offer advices. I'm learning Guitar Pro tabbing since 2 weeks, I feel happy tabbing, its really fun as a game ^^