Ads

Hold back your tears (Final Fantasy Legend 3) Guitar Tab

Submitted: Feb 08, 2020 by plapoa (Last updated: Feb 09, 2020)

0
Download | Listen
Game: Final Fantasy Legend 3
Composer(s): Ryuji Sasai, Chihiro Fujioka
Style: Arrangement, Artificial harmonics, Natural harmonics
Series: Final Fantasy

AutoScroll: Slow | Medium | Fast
Song: Hold back your tears 
Composer: Ryuji Sasai 
Game: Saga III (Final Fantasy Legend III) 
Arranger: plapoa

I'm sorry, this is the simplified version, i cannot tab the arrangement,the complete version is in the pdf.  

E|-----------3----1----|-0-----------|-0-------------------|-------------|----------------|
B|-1-------------------|-1----1------|---------------------|------3------|----------------|
G|------2--------------|------2------|------2----0---------|-2-----------|-2------0-------|
D|---------------------|-------------|----------------2----|-------------|------------3---|
A|-0-------------------|-0-----------|-3-------------------|-------------|-0--------------|
E|---------------------|-------------|---------------------|-1-----------|----------------|


E|-----------------------|-------------|
B|-----------------0-----|-0----1------|
G|-----------------------|-------------| X3
D|-2---------------------|-------------|
A|-----3---2---3---------|-0-----------|
E|-0---------------------|-------------|
Login or Register to remove this ad.

1 comment on Hold back your tears

i think i should have changed

i think i should have changed the tempo to 60 bpm

Dean_Reano have done the tabs of the arrangement, so i put them here

   E   E   E   E   E   E   E   E     E   E   E   E   X X X X S   E   E   E     E   E   E   E   E   E   E   E
E|-----------------3-------1-------|-0-----------------------0-----------0---|-0-------------------------------|
B|-1-------------------------------|-1-------1-------------1---------1-------|-----1---------------3---0-------|
G|---------2---------------0-------|---------2-----------2-------2-----------|---------2-------0-----------0---|
D|-----2---------------0-----------|-----2-------2-----2---------------------|-------------0-----------2---0---|
A|-0-----------3---2---------------|-0---------------0-----------------------|-3---------------2---------------|
E|-----------------------------3---|-----------------------------------------|-----------------------------3---|

                        [n]
   E   E   E   E   X X X E   E   E   E     E   E   E   E   E   E   E   E     E   E   E   E   E   E   E   E
E|-----------------------1-----------1---|-1---0-----------------------0---|-3---1---0-------0---------------|
B|---------3-----------3---------3-------|-------------1---0---1---3-------|-------------3---0---------------|
G|-2-----------2-----2-------2-----------|-2---------------2-------0-------|---------------------------------|
D|---------0-------3---------------------|-------------2-------3---2---3---|-2-----------------------2-------|
A|-----0---------------------------------|-0---2---3-------------------3---|-----3---2---3-------2-------2---|
E|-1-------------------------------------|---------------------------------|-3---1---0---1---0---------------|

   E   E   E   E   E   E   E   E     E   E   E   E   E   Q    E     E   E   E   E   E   E   E   E
E|-----0-------------------0-------|-0---3---1---0-------0----1---|-0-------------------------------|
B|---------1-----------1-------1---|-----------------3------------|---------3-----------------------|
G|-1-------0-------0---------------|------------------------------|-----2---0---2-------0-------0---|
D|-------------2-------------------|-------------0----------------|-2---------------3-------2-------|
A|---------3-----------------------|-1---------------3--------1---|---------------------------------|
E|---------------------------------|------------------------------|---------------------------------|

   H.     Q      E   E   E   E   E   E   E   E     E   E   E   E   X X X X S   E   E   E
E|-------------|-----------------3-------1-------|-0-----------------------0-----------0---|
B|-------------|-1-------------------------------|-1-------1-------------1---------1-------|
G|-------------|---------2---------------0-------|---------2-----------2-------2-----------|
D|-0------2----|-----2---------------0-----------|-----2-------2-----2---------------------|
A|-0-----------|-0-----------3---2---------------|-0---------------0-----------------------|
E|-------------|-----------------------------3---|-----------------------------------------|

                                                          [n]
   E   E   E   E   E   E   E   E     E   E   E   E   X X X E   E   E   E     E   E   E   E   E   E   E   E 
E|-0-------------------------------|-----------------------1-----------1---|-1---0-----------------------0---|
B|-----1---------------3---0-------|---------3-----------3---------3-------|-------------1---0---1---3-------|
G|---------2-------0-----------0---|-2-----------2-----2-------2-----------|-2---------------2-------0-------|
D|-------------0-----------2---0---|---------0-------3---------------------|-------------2-------3---2---3---|
A|-3---------------2---------------|-----0---------------------------------|-0---2---3-------------------3---|
E|-----------------------------3---|-1-------------------------------------|---------------------------------|

                                                                      [-n-]    [n] 
   E   E   E   E   E   E   E   E     E   E   E   E   E   E   E   E     T T E.   T E   E   Q    Q
E|-3---1---0-------0---------------|-----0-------------------0-------|--------------------0---------|
B|-------------3---0---------------|---------1-----------1-------1---|-----3------0---1--------3----|
G|---------------------------------|-1-------0-------0---------------|---2--------------------------|
D|-2-----------------------2-------|-------------2-------------------|-2----------------------------|
A|-----3---2---3-------2-------2---|---------3-----------------------|-0----------------------------|
E|-3---1---0---1---0---------------|---------------------------------|------------------------------|

   H     H       Q    Q    Q    Q      Q    H.       Q    Q    Q    Q      Q    Q    Q    Q 
E|-------------|---------<15<--<13>--|<12>---------|<12>-----------------|---------------------|
B|-------0-----|<13>-----------------|-----<13>----|---------------------|----------<12>-------|
G|-1-----------|---------------------|-------------|----------<12>-------|-----<19>-------<12>-|
D|-------------|-----<19>------------|-------------|-----<19>------------|<19>-----------------|
A|-------------|-0-------------------|-0-----------|---------------<19>--|-0-------------------|
E|-------------|---------------------|-------------|-1-------------------|---------------------|

   W
E|--------|
B|--------|
G|--------|
D|<19>----|
A|-0------|
E|--------|