Another Town (Final Fantasy Legend 3) Guitar Tab

Submitted: May 22, 2009 by auriplane (Last updated: Feb 04, 2010)

5
Average: 5 (2 votes)
Download | Listen
Game: Final Fantasy Legend 3
Composer(s): Ryuji Sasai, Chihiro Fujioka
Style: Arrangement, Fingerstyle
Series: Final Fantasy

AutoScroll: Slow | Medium | Fast
               Final Fantasy Legend 3 - Another Town GUITAR TAB
                    Song by Ryuji Sasai and Chihiro Fujioka

              Arranged & tabbed by auriplane ([email protected])
                               On May 22, 2009

Drop-D tuning.  Scroll down for the "Easy Version" ^-^

e |0-------5---0---|2---------------|0-------5---0---|2---------------|
B |2-------2-------|3-------3-------|2-------2-------|3-------3-------|
G |----2-------2---|----2-------2---|----2-------2---|----2-------2---|
D |--2---2-------2-|--4---4-------4-|--2---2-------2-|--4---4-------4-|
A |0-----------0---|------5---------|0-----------0---|------5---------|
D |----------------|0-----------6---|----------------|0-----------6---|
                                                                        
e |0-------5---0---|1---------------|8-------7-------|
B |2-------2-------|1-------1-------|5---------------|
G |----2-------2---|----2-------2---|--------7-------|
D |--2---2-------2-|----------------|----------------|
A |0-----------0---|--3---3-------3-|----------------|
D |----------------|3-----------3---|3-------5-------|

e |----------------|----------------|------------4-5-|2---------------|
B |0-----2-------2-|3-----2-----0---|2-----2---5---2-|3-----3---------|
G |----2-------2---|----2-------2---|----2-----2-----|----2-------2---|
D |--2---2---2-----|--4-------4---0-|--2---2-----2---|--4---4---4---4-|
A |0-----------0---|------5---------|0-----------0---|------5---------|
D |----------------|0-----------6---|----------------|0-----------6---|
                                                                        
e |7-----5---------|1---------------|0---------------|
B |--------------2-|1-----1---------|3-----3---------|
G |------------2---|----2-------2---|----2-------2---|
D |----7-2---2-----|----------------|--4---4---4---4-|
A |--7---------0---|--3---3---3---3-|------5---------|
D |7---------------|3-----------3---|0-----------6---|

e |----------------|----------------|----------------|----------------|
B |0-----2---------|3-------3-------|0---------------|1-------1-------|
G |----2-------2---|----2-------2---|--2---2-----2---|----2-------2---|
D |--2---2---2---2-|--4---4-------4-|----2-----2---2-|----------------|
A |0-----------0---|------5---------|0-----0---------|--3---3-------3-|
D |----------------|0-----------6---|----------------|3-------5-------|
                                                                  
e |0---------------|
B |2---------------|
G |2---------------|
D |2---------------|
A |0---------------|
D |----------------|
                                                                  



                                EASY VERSION ^-^ 

e |0-------5---0---|2---------------|0-------5---0---|2---------------|
B |----------------|----------------|----------------|----------------|
G |----------------|----------------|----------------|----------------|
D |------2---------|------0-0-------|------2---------|------0-0-------|
A |0-----------0---|----------------|0-----------0---|----------------|
D |----------------|0-----------6---|----------------|0-----------6---|
                                                                        
e |0-------5---0---|1---------------|8-------7-------|
B |----------------|----------------|----------------|
G |----------------|----------------|----------------|
D |------2---------|----------------|----------------|
A |0-----------0---|------3-3-------|8---------------|
D |----------------|3-----------3---|--------5-------|

e |----------------|----------------|----------0-4-5-|2---------------|
B |0-----2-------2-|3-----2-----0---|2---------------|------3---------|
G |------------2---|----------------|----------------|----------------|
D |------2---2-----|------0-0-------|------2---------|------0-0-------|
A |0-----------0---|----------------|0-----------0---|----------------|
D |----------------|0-----------6---|----------------|0-----------6---|
                                                                        
e |7-----5---------|1---------------|0---------------|
B |----------------|------1---------|------3---------|
G |----------------|------------2---|----------------|
D |------2---------|----------------|------0-0-------|
A |0-----------0---|------3-3-------|----------------|
D |----------------|3-----------3---|0-----------6---|

e |----------------|----------------|----------------|----------------|
B |0-----2---------|----------------|0---------------|----------------|
G |----------------|----------------|------2---------|----------------|
D |------2---------|------0-0-------|------2---------|----------------|
A |0-----------0---|----------------|0-----------0---|----------------|
D |----------------|0-----------6---|----------------|3-------5-------|

e |----------------|
B |2---------------|
G |2---------------|
D |2---------------|
A |0---------------|
D |----------------|
Login or Register to remove this ad.

2 comments on Another Town

i really like this! thanks so

5

i really like this! thanks so much :DDD

Yay! :-D I have a lot of

Yay! :-D I have a lot of nostalgia for this game.