Ads

You're Not Alone (Final Fantasy IX) Guitar Tab

Submitted: Jul 26, 2016 by Bessem (Last updated: Jul 26, 2016)

5
Average: 5 (3 votes)
Download | Listen
Game: Final Fantasy IX
Composer(s): Nobuo Uematsu
Style: Arrangement, Fingerstyle
Series: Final Fantasy

Click here for a video example.

AutoScroll: Slow | Medium | Fast
                              You are not alone                                 


                                                                   Nabuo Uematsu
Guitar



     ^           ^              ^           ^            
     E  E  E  E  E  E  E  E     E  E  E  E  E  E  E  E   
D||--------------------------|--------------------------|
A||--0-----------0-----------|--0-----------0-----------|
F||--------------0-----------|--------------------------|
C||--4-----------------------|--4-----------3-----------|
G||--2--2--2--2--2--2--2--2--|--2--2--2--2--2--2--2--2--|
D||--------------------------|--------------------------|


  ^           ^     ^        ^           ^                                    
  E  E  E  E  E  E  E  E     E  E  E  E  E  E  E  E     Q    Q    E  E  Q     
--------------------------|--------------------------|-----------------------|
--0-----------0-----0-----|--0-----------2-----------|--3----0-------0-------|
--------------------------|--------------2-----------|------------2----------|
--4-----------2-----4-----|--0-----------2-----------|------------------4----|
--2--2--2--2--2--2--0--0--|--------------0--0--0--0--|--2--------------------|
--------------------------|--3--3--3--3--------------|------------2----------|


  E  E  S S E  E  E  Q       E  E  E  E  Q    E  E     E  E  S S E  H         
--------------------------|--2--2--2--0-------------|------------------------|
--3--3--3-2-0-----0-------|--------------3----3--2--|--0--2--3-2-0--2--------|
---------------2----------|-------------------------|------------------------|
---------------0-----4----|-------------------------|---------------4--------|
--2-----------------------|-------------------------|------------------------|
--------3------------0----|--3-----------2----------|--0-----1------2--------|


  Q    Q    E  E  Q       E  E  S S E  E  E  Q       E  E  E  E  Q    E  E   
-----------------------|---------------------2----|--2--2--2--0-------------|
--3----0-------0-------|--3--3--3-2-0-----0-------|--------------3----3--2--|
------------2----------|---------------2----------|-------------------------|
------------------4----|---------------------0----|-------------------------|
--2--------------------|--2-----------------------|-------------------------|
------------2----------|--------3------2----------|--3-----------2----------|


  E  E  S S E  E  E  E  E     E  E  E  E  E  E  E  E   
---------------------------|--------------------------|
--0--3--2-0----0-----------|--3-----0--------0--------|
------------2--------------|--------------2-----------|
---------------------------|-----4--------------4-----|
---------------2--2--2--2--|--2--------2-----------4--|
--0-----2------------------|--------------2--------2--|


                             ^                       
  E  E  S S E  E  E  Q       E  E  E  E  Q    E  E   
--------------------------|--2--2--2--0-------------|
--3--3--3-2-0-----0-------|--0-----------3----3--2--|
---------------2----------|--0----------------------|
---------------0-----4----|-------------------------|
--2-----------------------|-------------------------|
--------3------------0----|--3--------3--2-------2--|


  E  E  S S E  E  E  E  E     E  E  E  E  E  E  E  E   
------------------------2--|--------------------------|
--0--2--3-2-0--2-----------|--3-----0--------0--------|
---------------------3-----|--------------2-----------|
------------------4--------|-----4--------------4-----|
---------------------------|--2--------2-----------4--|
--0-----1------2-----------|--------------2--------2--|


                     ^       ^           ^           
  E  E  S S E  E  E  Q       E  E  E  E  Q    E  E   
---------------------2----|--2--2--2--0-------------|
--3--3--3-2-0-----0-------|--0-----------3----3--2--|
---------------2-----2----|--0-----------2----------|
---------------------0----|-------------------------|
--2-----------------------|-------------------------|
--------3------2----------|--3--------3--2-------2--|


     ^                                                     
  E  E  S S E  E  E  E  E     E  S S E  S S E  S S E  S S  
---------------------------|---------7------5------2------|
--0--3--2-0----0-----3--2--|--0-----------------------3---|
------------2--------------|------------------------------|
---------------4-----------|----------------0--0-0-0--0-0-|
---------------2--2--2--2--|------------------------------|
--0-----2------------------|--7--7-7-7--7-7---------------|


  E  S S E  S S E  S S E  S S    E  S S E  S S E  S S  E  S S  
--0------0------0--2----------|------------0---2------10------|
---------0--3----------0------|--0------3---------------------|
---------1--------------------|-------------------------------|
------------------------------|----------------0--0-0--0--0-0-|
------------------------------|--2--2-2-2--2-2----------------|
--0--0-0-0--0-0-3--3-3-3--3-3-|-------------------------------|


  E  S S E  S S  E  S S E  S S    E  S S E  S S  E  S S E  S S  
--9----------------------------|--7--5---7--9---10------5--2---|
----------------11-------------|-------------------------------|
-----------------9-------------|-------------------------------|
-------------------------------|-----------------0--0-0-0--0-0-|
--9--9-9-9--9-9--9--9-9-9--9-9-|-------------------------------|
-------------------------------|--3--3-3-3--3-3----------------|


  E  S S E  S S E  S S E  S S    E  S S E  S S E  S S E  S S  
--0------0------0--2----------|------------------------------|
------------3----------0------|--0---------2-3-2-------------|
------------------------------|-----------------------2------|
-----------------------0--0-0-|------------------------------|
------------------------------|------------------------------|
--3--3-3-2--2-2-0--0-0--------|--0--0-0-0--0---2--2-2-2--2-2-|


  E  S S E  E  E  S S E  S S    E  S S E  S S E  S S E  S S  
-----------------------------|---------7------5------2------|
--0-------------------3--2---|--0-------------3---------3---|
-----------------------------|------------------------------|
-----------------------------|----------------0--0-0-0--0-0-|
--2--2-2-2--2--2--2-2-2--2-2-|------------------------------|
-----------------------------|--7--7-7-7--7-7---------------|


  E  S S E  S S E  S S E  S S    E  S S E  S S E  S S  E  S S  
--0------0------0--2----------|------------0---2------10------|
------------3----------0------|--0------3--0---3--------------|
----------------0------0------|---------4---------------------|
--2---------------------------|--4-------------0--0-0--0--0-0-|
------------------------------|--2--2-2-2--2-2----------------|
--0--0-0-0--0-0-3--3-3-3--3-3-|-------------------------------|


  E  S S E  S S  E  S S E  S S    E  S S E  S S  E  S S E  S S  
--9----------------------------|--7--5---7--9---10------5--2---|
----------------11-------------|------------------------3------|
-----------------9-------------|--0----------------------------|
-------------------------------|-----------------0--0-0-0--0-0-|
--9--9-9-9--9-9--9--9-9-9--9-9-|-------------------------------|
-------------------------------|--3--3-3-3--3-3----------------|


  E  S S E  S S E  S S Q       Q.     S S Q    Q       W                 
--0------0------0--2--------|-----------------------|-------------------|
------------3----------0----|--0------2-3-2---------|--0----------------|
----------------------------|------------------2----|-------------------|
-----------------------0----|-----------------------|-------------------|
----------------------------|-----------------------|--2----------------|
--3--3-3-2--2-2-0--0-0------|--0----------2---------|-------------------|


  ^           ^              ^           ^            
  E  E  E  E  E  E  E  E     E  E  E  E  E  E  E  E   
--------------------------|--------------------------|
--0-----------0-----------|--0-----------0-----------|
--------------0-----------|--------------------------|
--4-----------------------|--4-----------3-----------|
--2--2--2--2--2--2--2--2--|--2--2--2--2--2--2--2--2--|
--------------------------|--------------------------|


  ^           ^     ^        ^           ^              ^                  
  E  E  E  E  E  E  E  E     E  E  E  E  E  E  E  E     W                  
--------------------------|--------------------------|-------------------||
--0-----------0-----0-----|--0-----------2-----------|--3----------------||
--------------------------|--------------2-----------|--4----------------||
--4-----------2-----4-----|--0-----------2-----------|--4----------------||
--2--2--2--2--2--2--0--0--|--------------0--0--0--0--|--2----------------||
--------------------------|--3--3--3--3--------------|-------------------||
Login or Register to remove this ad.

1 comment on You're Not Alone

This is a very fun piece.

5

This is a very fun piece. Great job.