Ads

You're Not Alone (Final Fantasy IX) Guitar Tab

Submitted: Nov 27, 2012 by TheDoomOfAllFires

5
Average: 5 (8 votes)
Download | Listen
Game: Final Fantasy IX
Composer(s): Nobuo Uematsu
Style: Arrangement, Fingerstyle
Series: Final Fantasy

AutoScroll: Slow | Medium | Fast
Title: You're Not Alone
Artist: Nobuo Uematsu
Album: FF IX
Music: Nobuo Uematsu
Copyright: Nobuo Uematsu / Square-Enix
Tabber: TheDoomOfAllFires
Tempo = 70




      ^                       ^                         
      Q    Q    E  E  Q       E  E  S  S E  E  E  Q     
E||------------------------|---------------------------|
B||---1--------------------|--1--1--1p-0---------------|
G||*-------2----0--2-------|-------------2--0--2-------|
D||*--2---------------2----|--2----------2--------2----|
A||---0--------------------|--0-----0-------2----------|
E||-------------0----------|---------------------------|


  ^           ^             ^             ^           ^                     
  E  E  E  E  Q    E  E     E  E  S  S E  H           Q    Q    E  E  Q     
--0--0--0----------------|-------------------------|-----------------------|
-----------3--1----1--0--|-----0--1p-0----0--------|--1--------------------|
--0-----------2-------0--|--2----------2--1--------|-------2----0--2-------|
--------2----------2-----|--3----------------------|--2----2----------2----|
--3-----------0----------|--------0----------------|--0--------------------|
-------------------------|--1-------------0--------|------------0----------|


  ^                   ^       ^                        
  E  E  S  S E  E  E  Q       E  E  E  E  Q    E   E   
----------------------0----|--0--0--0-----------------|
--1--1--1p-0-------0-------|-----------3--1----1p--0--|
-------------2--0-----0----|--2-----------0-----------|
--2-----2-------------2----|--3-----------2-----------|
--0-----3-------2----------|--------------------------|
----------------------0----|--1-----1-----------------|


  ^             ^             ^                                                 
  E  E  S S  E  H             E  E  S S  E  Q    E  E     Q    Q    Q    E  E   
--------------------------||---------------------------|-------5----3----0-----|
-----1--0-----------------||-----1--0------------1--0--|--------------------1--|
--2-------2p-0--2--------*||--2-------2p-0--2----------|--2----2----4-------2--|
--3-------------2--------*||--3-------------2----------|--2--------------2-----|
----------------0---------||----------------0----3--2--|--0--------------------|
--1-----0-----------------||--1-----0------------------|-----------------------|


       ^                                           ^                       
  Q    E  E  E  E  Q       Q    E  E  Q    Q       Q    E  E  E  E  E  E   
----------------0-------|-------------0----8----|--7----------------7-----|
--3----3--1--3----------|-------1--3------------|--0----------0--------8--|
-------2-----2-----2----|--2----2-----0----9----|-------0--2-----7--------|
-------3-----------2----|--2--------------------|-------------------------|
------------------------|--0----------3---------|-------------------------|
--1----------------0----|------------------0----|--3----------------------|


              ^                                                              
  E  E  E  E  Q    E  E     Q    E  E  E  E  Q       Q.     S  S  Q    Q     
--5--3--5--7--8----------|----------------0-------|-------------------------|
-------------------8-----|------------------------|---------0h-1p-0---------|
--------5-----9-------9--|--7----7--5--7-----2----|--2-----------------0----|
--3----------------------|-------------------2----|--3------------0---------|
-------------------------|--8---------------------|-------------------------|
--------------8----------|------------------------|--1------------3---------|


  ^                     ^                       ^                         
  W                     Q    Q    E  E  Q       E  E  S  S E  E  E  Q     
-------------------||------------------------|---------------------------|
-------------------||---1--------------------|--1--1--1p-0---------------|
--2----------------||*-------2----0--2-------|-------------2--0--2-------|
--2----------------||*--2---------------2----|--2----------2--------2----|
--0----------------||---0--------------------|--0-----0-------2----------|
-------------------||-------------0----------|---------------------------|


  ^           ^             ^             ^           ^                     
  E  E  E  E  Q    E  E     E  E  S  S E  H           Q    Q    E  E  Q     
--0--0--0----------------|-------------------------|-----------------------|
-----------3--1----1--0--|-----0--1p-0----0--------|--1--------------------|
--0-----------2-------0--|--2----------2--1--------|-------2----0--2-------|
--------2----------2-----|--3----------------------|--2----2----------2----|
--3-----------0----------|--------0----------------|--0--------------------|
-------------------------|--1-------------0--------|------------0----------|


  ^                   ^       ^                        
  E  E  S  S E  E  E  Q       E  E  E  E  Q    E   E   
----------------------0----|--0--0--0-----------------|
--1--1--1p-0-------0-------|-----------3--1----1p--0--|
-------------2--0-----0----|--2-----------0-----------|
--2-----2-------------2----|--3-----------2-----------|
--0-----3-------2----------|--------------------------|
----------------------0----|--1-----1-----------------|


  ^             ^             ^                                                 
  E  E  S S  E  H             E  E  S S  E  Q    E  E     Q    Q    Q    E  E   
--------------------------||---------------------------|-------5----3----0-----|
-----1--0-----------------||-----1--0------------1--0--|--------------------1--|
--2-------2p-0--2--------*||--2-------2p-0--2----------|--2----2----4-------2--|
--3-------------2--------*||--3-------------2----------|--2--------------2-----|
----------------0---------||----------------0----3--2--|--0--------------------|
--1-----0-----------------||--1-----0------------------|-----------------------|


       ^                                           ^                       
  Q    E  E  E  E  Q       Q    E  E  Q    Q       Q    E  E  E  E  E  E   
----------------0-------|-------------0----8----|--7----------------7-----|
--3----3--1--3----------|-------1--3------------|--0----------0--------8--|
-------2-----2-----2----|--2----2-----0----9----|-------0--2-----7--------|
-------3-----------2----|--2--------------------|-------------------------|
------------------------|--0----------3---------|-------------------------|
--1----------------0----|------------------0----|--3----------------------|


              ^                                                              
  E  E  E  E  Q    E  E     Q    E  E  E  E  Q       Q.     S  S  Q    Q     
--5--3--5--7--8----------|----------------0-------|-------------------------|
-------------------8-----|------------------------|---------0h-1p-0---------|
--------5-----9-------9--|--7----7--5--7-----2----|--2-----------------0----|
--3----------------------|-------------------2----|--3------------0---------|
-------------------------|--8---------------------|-------------------------|
--------------8----------|------------------------|--1------------3---------|


  ^                  
  W                  
-------------------||
-------------------||
--2----------------||
--2----------------||
--0----------------||
-------------------||




Duration Legend
---------------
W - whole
H - half
Q - quarter
E - 8th
S - 16th
T - 32nd
X - 64th
. - note dotted
|-n-|  - n-tuplets


Tablature Legend
----------------
L - tied note
x - dead note
g - grace note
(n) - ghost note
> - accentuded note
NH - natural harmonic
AH - artificial harmonic
TH - tapped harmonic
SH - semi harmonic
PH - pitch harmonic
h - hammer on
p - pull off
b - bend
br - bendRelease
pb - preBend
pbr - preBendRelease
brb - bendReleaseBend
\n/ - tremolo bar dip
\n - tremolo bar dive
-/n - tremolo bar Release up
/n\ - tremolo bar inverted dip
/n - tremolo bar return
-\n - tremolo bar Release down
S - shift slide
s - legato slide
/ -  slide into from below or out of upwards
\ -  slide into from above or out of downwards
~ - vibrato
W - wide vibrato
tr - trill
TP - tremolo picking
T - tapping
S - slap
P - pop
< - fade in
^ - brush up
v - brush down
Login or Register to remove this ad.

2 comments on You're Not Alone

:D

5

Excellently tabbed; not too difficult - perfect!

Nice, and very easy to play!

5

Nice, and very easy to play!