Ads

You're Not Alone (Final Fantasy IX) Guitar Tab

Submitted: Jul 26, 2012 by Rage McDougal

4.9
Average: 4.9 (10 votes)
Download | Listen
Game: Final Fantasy IX
Composer(s): Nobuo Uematsu
Style: Arrangement, Fingerstyle
Series: Final Fantasy

AutoScroll: Slow | Medium | Fast
You're Not Alone
Final Fantasy IX
Composed by Nobuo Uematsu
Arranged by James Bamber

Drop-D Tuning

  Q=70

  H    H      H    H      H    Q  Q    H    H
|-----------|-----------|------------|-----------|
|-----------|-----------|------------|-----------|
|-2----2----|-2----2----|-2----2--2--|-2----4----|
|-2----3----|-2----1----|-2----0--2--|------5----|
|-0----0----|-0----0----|-0----0-----|-3----5----|
|-----------|-----------|---------5--|-3----5----|


  Q  Q  E E Q    E E S S E E E Q    E E E E Q  E E   E E S S E H
|--------------|------------------|-0-0-0----------|----------------|
|-1------------|-1-1-1p0----------|-------3-1--1-0-|---0-1p0---0----|
|----2--0-2----|---------2-0-2----|----------------|-2-------2------|
|-----------2--|---------------2--|----------------|-----------2----|
|-0------------|-0---------3------|----------------|----------------|
|-------2------|-----3---------0--|-3-------2------|-0---1-----2----|
  H     H        Q   Q     Q   Q    H       H        Q   Q     H


  Q  Q  E E Q    E E S S E E E Q    E E E E Q  E E   E E S S E H
|--------------|---------------0--|-0-0-0----------|----------------|
|-1------------|-1-1-1p0----------|-------3-1--1-0-|---1-0----------|
|----2--0-2----|---------2-0-2----|----------------|-2-----2-0-2----|
|-----------2--|------------------|----------------|----------------|
|-0------------|-0-------------3--|----------------|-----------0----|
|-------2------|-----3-----2------|-3-------2------|-0---2----------|
  H     H        Q   Q     Q   Q    H       H        Q   Q     H


  Q   Q   E  E Q     E E S S E E E Q    E  E E E Q   E E   E E S S E Q   Q
|------------------|------------------|-0--0-0-----------|-------------------|
|-1----------------|-1-1-1p0----------|-1------3-1---1-0-|---0-1p0---0--(0)--|
|-2---2---0--2-----|-2---2---2-0-2----|------------------|-2---2---2-----1---|
|-----2--------2---|---------------2--|--------3-2-----2-|-0---------2-------|
|-0-----0------2---|-0---------3------|------------------|-------------------|
|---------2------2-|-----3---------0--|-3------3-2-----2-|-0---1-----2-------|
  Q.    E Q.     E   Q   Q     Q   Q    Q.     E Q.    E   Q   Q     H


  Q   Q   E  E Q     E E S S E E E Q    E  E E E Q   E E   E E S S E Q  E E
|------------------|---------------0--|-0--0-0-----------|------------------|
|-1----------------|-1-1-1p0----------|-1------3-1---1-0-|---1-0--------1-0-|
|-2---2---0--2-----|-2---2---2-0-2----|------------------|-2-----2-0-2------|
|-----2--------2---|---------------2--|--------3-2-----2-|-0---2-----2------|
|-0-----0------2---|-0-------------3--|------------------|-----------0------|
|---------2------2-|-----3-----2------|-3------3-2-----2-|-0---2------------|
  Q.    E Q.     E   Q   Q     Q   Q    Q.     E Q.    E   Q   Q     H


  Q      Q      Q      E  E     Q      E  E   E  E   Q
|--------5------3------0------|------------------0------------|
|-------------------------1---|-3------3--1---3---------------|
|-2---------------------------|----------------------2--------|
|-----------------------------|-------------------------------|
|-0--0-0-0--0-0-3--3-3-3--3-3-|-------------------------------|
|-----------------------------|-0--0-0-0--0-0-3--3-3-3--3-3---|
  E  S S E  S S E  S S E  S S   E  S S E  S S E  S S E  S S


  Q      E  E   Q      Q        H             H
|---------------0------8------|-7-------------4---------------|
|--------1--3-----------------|---------------5---------------|
|-2---------------------------|-------------------------------|
|-----------------------------|-------------------------------|
|-0--0-0-0--0-0-3--3-3-3--3-3-|-------------------------------|
|-----------------------------|-2--2-2-2--2-2-2--2-2-2--2-2---|
  E  S S E  S S E  S S E  S S   E  S S E  S S E  S S E  S S


  E  E   E  E   Q      E  E     Q      E  E   E  E   Q
|-5--3---5--7---8------3--0---|------------------0------------|
|-----------------------------|-3------3--1---3---------------|
|-----------------------------|----------------------2--------|
|-----------------------------|-------------------------------|
|---------------3--3-3-3--3-3-|----------------------3--3-3---|
|-3--3-3-3--3-3---------------|-3--3-3-2--2-2-0--0-0----------|
  E  S S E  S S E  S S E  S S   E  S S E  S S E  S S E  S S


  Q.         S S Q      Q        Q.          E   Q   E E
|------------------------------|----------------<5>---------|
|------------0h1-0-------------|------------<5>------1-0----|
|-2---------------------0------|-2--------------------------|
|------------------------------|----------------------------|
|------------------------------|----------------------------|
|-0---0-0-0--0---2--2-2-2--2-2-|-3---3-3-3------------------|
  E   S S E  E   E  S S E  S S   E   S S H.


  Q      Q      Q      E  E     Q      E  E   E   E    Q
|--------5------3------0------|-------------------0-------------|
|---------------1---------1---|-3------3--1---3-----------------|
|-2---------------------------|------------------------2--------|
|-2---------------------------|-0-------------3--(3)---3--------|
|-0--0-0-0--0-0-3--3-3-3--3-3-|---------------------------------|
|-----------------------------|-0--0-0-0--0-0-3---3--3-3--3-3---|
  E  S S E  S S E  S S E  S S   E  S S E  S S E   S  S E  S S


  Q      E  E   Q      Q        H             H
|---------------0------8------|-7-------------4---------------|
|--------1--3-----------------|---------------5---------------|
|-2------2--2---5-------------|-------------------------------|
|-2---------------------------|-------------------------------|
|-0--0-0-0--0-0-3--3-3-3--3-3-|-------------------------------|
|-----------------------------|-2--2-2-2--2-2-2--2-2-2--2-2---|
  E  S S E  S S E  S S E  S S   E  S S E  S S E  S S E  S S


  E   E    E  E   Q      E   E      Q      E  E   E  E   Q
|-5---3----5--7---8------3---0----|------------------0--------|
|---------------------------------|-3------3--1---3-----------|
|------------------------5--(5)---|-0------0--0---2------2----|
|-3--(3)--------------------------|---------------------------|
|-----------------3--3-3-3---3--3-|----------------------3----|
|-3---3--3-3--3-3-----------------|-3--3-3-2--2-2-0--0-0------|
  E   S  S E  S S E  S S E   S  S   E  S S E  S S E  S S Q


  Q.   S S Q  Q    W          H    H      H    H
|----------------|----------|-----------|-----------|
|------0h1-0-----|----------|-----------|-----------|
|-2-----------0--|-2--------|-2----2----|-2----2----|
|----------------|----------|-2----3----|-2----1----|
|----------------|-0--------|-0----0----|-0----0----|
|-0--------2-----|----------|-----------|-----------|
  H        H       W


  H.=H
  H    Q  Q    H    H      W
|------------|-----------|------*|
|------------|-----------|------*|
|-2----2--2--|-2----4----|-2----*|
|-2----0--2--|------5----|-2----*|
|-0----0-----|-3----5----|-0----*|
|---------5--|-3----5----|------*|


Duration Legend
---------------
W - whole; H - half; Q - quarter; E - 8th; S - 16th; T - 32nd; X - 64th; a - acciaccatura
+ - note tied to previous; . - note dotted; .. - note double dotted
Uncapitalized letters represent notes that are staccato (1/2 duration)
Irregular groupings are notated above the duration line
Duration letters will always appear directly above the note/fret number it represents the
duration for.  Duration letters with no fret number below them represent rests.  Multi-
bar rests are notated in the form Wxn, where n is the number of bars to rest for.  Low
melody durations appear below the staff
Login or Register to remove this ad.

1 comment on You're Not Alone

Okay, this was actually

5

Okay, this was actually pretty fun! There are a couple of spots where I'd jump the bass up an octave to make it more playable, but I'm definitely saving this for comparison with other versions.

Nice work!