You're Not Alone (Final Fantasy IX) Bass Tab

Submitted: May 02, 2009 by auriplane (Last updated: Jan 14, 2012)

5
Average: 5 (3 votes)
Download | Listen
Game: Final Fantasy IX
Composer(s): Nobuo Uematsu
Style: Transcription
Series: Final Fantasy

AutoScroll: Slow | Medium | Fast
                Final Fantasy 9 - You're Not Alone BASS TAB
                          Song by Nobuo Uematsu

                  Tabbed by auriplane ([email protected])
                                On 5/2/2009

Four-string bass, standard tuning.

    Intro

G |----------------|----------------|----------------|----------------|
D |----------------|----------------|----------------|----------------|
A |0---------------|0---------------|0---------------|----------------|
E |--------1-------|--------1-------|------------3---|1-------0-------|

    Part A  (Repeat twice)

G |----------------|----------------|----------------|----------------|
D |--------2-------|----3-------0---|3-------2-------|0---1---2-------|
A |0---------------|0-------3-------|----------------|----------------|
E |----------------|----------------|----------------|----------------|

G |----------------|----------------|----------------|----------------|
D |--------2-------|----3---2-------|3-------2-------|0---2-----------|
A |0---------------|0-----------3---|----------------|--------0-------|
E |----------------|----------------|----------------|----------------|

    Part B  (Repeat twice)

G |----------------|----------------|----------------|----------------|
D |----------------|0-------3-------|----------------|2---------------|
A |0-------3-------|----------------|0-------3-------|----------------|
E |----------------|----------------|----------------|----------------|
                                                      First ending
G |----------------|----------------|----------------|----------------|
D |----------------|3---2---0-------|0-------2-------|3---------------|
A |--------3-------|------------3---|----------------|----------------|
E |1---------------|----------------|----------------|----------------|
                                                      Second ending
                                                     |----------------|
                                                     |----------------|
                                                     |0---------------|
    Part C                                           |----------------|

G |----------------|----------------|----------------|----------------|
D |--------3-------|--------1-------|2-------3-------|4---------------|
A |0---------------|0---------------|----------------|----------------|
E |----------------|----------------|----------------|--------4-------|

    Repeat back to Part A.












Technically, the bass in B goes like this:

G |----------------|----------------|----------------|----------------|
D |----------------|0---------------|----------------|2---------------|
A |0---------------|----------------|0---------------|----------------|
E |----------------|----------------|----------------|----------------|

But my ear wants to follow the synth part above it when I play along.
It sounds right to me to play those 3s, so I left them in the tab :-)
Do as you will!

Login or Register to remove this ad.