Ads

The Wavering Blade/Sword of Doubt (Final Fantasy IX) Guitar Tab

Submitted: Apr 04, 2020 by plapoa (Last updated: Apr 08, 2020)

4
Average: 4 (1 vote)
Download | Listen
Game: Final Fantasy IX
Composer(s): Nobuo Uematsu
Style: Arrangement
Series: Final Fantasy

AutoScroll: Slow | Medium | Fast
Title: The Wavering Blade 
Game: Final Fantasy IX 
Composer: Nobuo Uematsu 
Tabber: plapoa 

here is the original https://www.youtube.com/watch?v=U16EgBa1iZg

i made it in a classical guitar, but i think it would sound well in a electric guitar.

here is in a electrical guitar soundfont https://soundcloud.com/hanse-dersen/the-wavering-blade



E|------------------6---5-------------|-------------0----3---1-------------|------------------6---5-------------|
B|-----5---6---8----------------------|-----1---3--------------------------|-----5---6---8----------------------|
G|-7----------------------------------|-3----------------------------------|-7----------------------------------|
D|------------------------------------|------------------------------------|------------------------------------|
A|-5--------------------------5---3---|-1--------------------------1---3---|-5--------------------------5---7---|
E|------------------------------------|------------------------------------|------------------------------------|


E|-------------6----9---8------|-------------6----6---8---6-------------------|--------|
B|-6---8---9-------------------|-6---8---9--------------------9---8---6-------|-6------|
G|-----------------------------|------------------------------------------8---|--------|
D|-----------------------------|----------------------------------------------|--------|
A|-8---------------------------|-8--------------------------------------------|-8------|
E|-----------------------------|----------------------------------------------|--------|


E|----------------------1-----------------------|-----1--------------------------|
B|-----1---2---4----4-------4---2---1-----------|---------4---2---1--------------|
G|-3------------------------------------3---1---|---------------------1---3------|
D|----------------------------------------------|-4------------------------------|
A|-1--------------------------------------------|-1------------------------------|
E|----------------------------------------------|--------------------------------|


E|------------------6---5-------------|-------------0----3---1-------------|------------------6---5-------------|
B|-----5---6---8--------6-------------|-----1---3------------3-------------|-----5---6---8--------6-------------|
G|-7--------------------7-------------|-3--------------------3-------------|-7--------------------7-------------|
D|-7--------------------7-------------|-3--------------------3-------------|-7--------------------7-------------|
A|-5--------------------5-----5---3---|-1--------------------1-----1---3---|-5--------------------5-----5---7---|
E|-5--------------------5-------------|-1--------------------1-------------|-5--------------------5-------------|


E|------------------9---8------|----------------------8-----------------------|--------|
B|-----8---9---11-------9------|-----8---9---11---11------11--9---8-----------|--------|
G|-10-------------------10-----|-10-------------------10--------------10--8---|-10-----|
D|-10-------------------10-----|-10-------------------10----------------------|-10-----|
A|-8--------------------8------|-8--------------------8-----------------------|-8------|
E|-8--------------------8------|-8--------------------------------------------|-8------|


E|----------------------1-----------------------|-----1--------------------------|
B|-----1---2---4----4-------4---2---1-----------|---------4---2---1--------------|
G|-3--------------------3---------------3---1---|---------------------1---3------|
D|-3--------------------3-----------------------|-4-----------------------3------|
A|-1--------------------1-----------------------|-1-----------------------3------|
E|-1--------------------------------------------|-------------------------1------|

Login or Register to remove this ad.

3 comments on The Wavering Blade/Sword of Doubt

Nice job with this. I think

Nice job with this. I think it could really use a capo fret 1, so for anyone who would like that here it is transposed down a fret.

E|------------------5---4-------------|------------------2---0-------------|------------------5---4-------------|
B|-----4---5---7----------------------|-----0---2---4----------------------|-----4---5---7----------------------|
G|-6----------------------------------|-2----------------------------------|-6----------------------------------|
D|------------------------------------|------------------------------------|------------------------------------|
A|-4--------------------------4---2---|-0--------------------------0---2---|-4--------------------------4---6---|
E|------------------------------------|------------------------------------|------------------------------------|


E|-------------5----8---7------|-------------5----5---7---5-------------------|--------|
B|-5---7---8-------------------|-5---7---8--------------------8---7---5-------|-5------|
G|-----------------------------|------------------------------------------7---|--------|
D|-----------------------------|----------------------------------------------|--------|
A|-7---------------------------|-7--------------------------------------------|-7------|
E|-----------------------------|----------------------------------------------|--------|


E|----------------------0-----------------------|-----0--------------------------|
B|-----0---1---3----3-------3---1---0-----------|---------3---1---0--------------|
G|-2------------------------------------2---0---|---------------------0---2------|
D|----------------------------------------------|-3------------------------------|
A|-0--------------------------------------------|-0------------------------------|
E|----------------------------------------------|--------------------------------|


E|------------------5---4-------------|------------------2---0-------------|------------------5---4-------------|
B|-----4---5---7--------5-------------|-----0---2---4--------2-------------|-----4---5---7--------5-------------|
G|-6--------------------6-------------|-2--------------------2-------------|-6--------------------6-------------|
D|-6--------------------6-------------|-2--------------------2-------------|-6--------------------6-------------|
A|-4--------------------4-----4---2---|-0--------------------0-----0---2---|-4--------------------4-----4---6---|
E|-4--------------------4-------------|-0--------------------0-------------|-4--------------------4-------------|


E|------------------8---7------|----------------------7-----------------------|--------|
B|-----7---8---10-------8------|-----7---8---10---10------10--8---7-----------|--------|
G|-9--------------------9------|-9--------------------9---------------9---7---|-9------|
D|-9--------------------9------|-9--------------------9-----------------------|-9------|
A|-7--------------------7------|-7--------------------7-----------------------|-7------|
E|-7--------------------7------|-7--------------------------------------------|-7------|


E|----------------------0-----------------------|-----0--------------------------|
B|-----0---1---3----3-------3---1---0-----------|---------3---1---0--------------|
G|-2--------------------2---------------2---0---|---------------------0---2------|
D|-2--------------------2-----------------------|-3-----------------------2------|
A|-0--------------------0-----------------------|-0-----------------------2------|
E|-0--------------------------------------------|-------------------------0------|

oh, nice, the fingerings

oh, nice, the fingerings weren't too difficult so i had not think too much about transposing it.

It's a great tab, good job on

It's a great tab, good job on it =)

Your original version only has 2 open notes in it and a ton of fret 1s, whenever I see that I consider a capo even if it's still perfectly playable with all the 1s. Just don't take my transposition as me judging your tab haha, just trying to be helpful for the community.