Wall of Sacred Beasts (Final Fantasy IX) Guitar Tab

Submitted: Jun 02, 2010 by Daugreano

0
Download | Listen
Game: Final Fantasy IX
Composer(s): Nobuo Uematsu
Style: Alternate picking, Transcription
Series: Final Fantasy

This song is also called Eidolon Wall

AutoScroll: Slow | Medium | Fast
Song: Wall Of Sacred Beasts
Game: Final Fantasy IX 
Composer: Nobuo Uematsu
Tabbed by: Daugreano

There are eleven measures before this plays during the song...

Guitar:
               .               .             .
   H     Q    E         H     Q     S  S    H      Q      W        H     Q    Q
E|--------------------|-------------------|-------------|--------|-------5----1----|
B|--------------------|-------------------|-------------|--------|-----------------|
G|--------------------|-------------------|-------------|--------|-----------------|
D|--------------------|-------------------|-------------|--------|-----------------|
A|------------3-------|-3-----------3-----|-------------|--------|-----------------|
E|-------5------------|-------6--------6--|-5-----------|--------|-----------------|
          .                                 .             .      .          .
   H     Q     T T T T   H     Q    Q      H      Q      H      Q    T T   H
E|-8-----6-------7-8-9-|-10----13---10---|-15-----19---|-18-----16---1816|-15----------|
B|---------------------|-----------------|-------------|-----------------|-------------|
G|---------------------|-----------------|-------------|-----------------|-------------|
D|---------------------|-----------------|-------------|-----------------|-------------|
A|---------------------|-----------------|-------------|-----------------|-------------|
E|---------------------|-----------------|-------------|-----------------|-------------|



Login or Register to remove this ad.