Ads

Vivi's Theme (Solo) (Final Fantasy IX) Guitar Tab

Submitted: Jun 23, 2010 by auriplane

4.857145
Average: 4.9 (7 votes)
Download | Listen
Game: Final Fantasy IX
Composer(s): Nobuo Uematsu
Style: Arrangement, Fingerstyle
Series: Final Fantasy

AutoScroll: Slow | Medium | Fast
                         Final Fantasy IX - Vivi's Theme (Duet Version)
                                   Song by Nobuo Uematsu

                        Arranged & tabbed by auriplane ([email protected])                



I arranged this as a duet, but some people wanted it all on one guitar, so here it is :-)  I 
personally think it's a bit unwieldy.  I made this about a year ago, apparently.  Standard tuning.




     Q    Q    Q    Q       Q    Q    Q    Q       Q    E  E  Q    Q       Q    Q    Q    Q     
E||----------------------|----------------------|------------------0----|-------2---------3----|
B||-------4---------4----|-------4---------4----|-------4--0-------1----|-------3---------4----|
G||--2---------0---------|--2---------0---------|--2----------0---------|--2---------0---------|
D||--2---------0---------|--2---------0---------|--2----------0---------|--2---------0---------|
A||----------------------|----------------------|-----------------------|----------------------|
E||----------------------|----------------------|-----------------------|----------------------|


  Q    Q    Q    Q       Q    Q    Q    Q       Q    E  E  Q    Q       Q    Q    Q    Q     
----------------------|----------------------|------------------0----|-------2---------3----|
-------4---------4----|-------4---------4----|-------4--0-------1----|-------3---------4----|
--2---------0---------|--2---------0---------|--2----------0---------|--2---------0---------|
--2---------0---------|--2---------0---------|--2----------0---------|--2---------0---------|
----------------------|----------------------|-----------------------|----------------------|
----------------------|----------------------|-----------------------|----------------------|


  Q    Q    Q    E  E     E  E  E  E  Q    E  E     Q    Q    Q    E  E     Q    Q    Q    Q     
--6----6----6----5--3--|--------5----------------|--6----6----6----5--3--|--8----5--------------|
-----------------------|--7--8-----7-------5--7--|-----------------------|------------6---------|
-------0---------0-----|--------5-----7----5-----|-------0---------0-----|-------5---------5----|
-----------------------|-------------------------|-----------------------|----------------------|
-----------------------|--0-------------------L--|-----------------------|--0--------------L----|
--3-----------------L--|-------------------------|--3-----------------L--|----------------------|


  Q    Q    Q    E  E     E  E  E  E  Q    E  E     Q    E  E  Q    Q       E  E  E  E  E  E  E  E   
--6----6----6----5--3--|--------5----------------|--3----0--2--3----0----|--------------------------|
-----------------------|--7--8-----7-------5--7--|-----------------------|--------4-----------------|
-------0---------0-----|--------5-----7----5-----|-------0----------0----|--5--7-----5-----------5--|
-----------------------|-------------------------|-----------------------|--------------6--L--8-----|
-----------------------|--0-------------------L--|-----------------------|--------6-----------6-----|
--3-----------------L--|-------------------------|--3---------------L----|--4--------------------L--|


  Q    Q    E  E  E  E     Q    Q    H           Q    Q    E  E  E  E     Q    Q    E  E  E  E   
------------------------|---------------------|------------------------|-------0-------------0--|
------------------------|---------------------|------------------------|------------0--2--4-----|
--0----3----7--5--3--2--|--1----1----1--------|--0----3----7--5--3--2--|--1---------0--L--------|
-------0----5--4--3--2--|--1---------L--------|-------0----5--4--3--2--|--1---------------------|
--1---------------------|---------------------|--1---------------------|------------------------|
------------------------|---------------------|------------------------|------------------------|


  H        H           E  E  Q    Q    E  E     Q    E  E  Q    Q       Q    Q    Q    E  E   
--2-----------------|--0-----0------------0--|--2----0-----0---------|-------0----2----0-----|
--4-----------------|-----4-------2----4-----|----------4-------2----|--4-----------------4--|
--4-----------------|--------2---------4-----|-------2----------4----|-------2---------4-----|
--------------------|--------2---------2-----|-------2----------2----|-------2---------2-----|
--2-----------------|--0---------------------|--0--------------------|--0--------------------|
--------------------|-------------3----------|-------------3---------|------------3----------|


  Q    Q    Q    Q       Q    Q    Q    Q       Q    Q    Q    Q       E  E  E  E  Q    E  E   
--0-------------------|----------------------|----------------------|--5--4--5--2--4----2--0--|
----------------------|----------------------|----------------------|--------3----------3-----|
-------2---------4----|-------2---------4----|-------2---------4----|--------2----------4-----|
-------2---------2----|-------2---------2----|-------2---------2----|--0-----------2----------|
--0-------------------|--0-------------------|--0-------------------|-------------------------|
------------3---------|------------3---------|------------3---------|-------------------------|


  Q    Q    Q    E  E     E  E  E  E  Q    E  E     Q    Q    Q    Q       Q    Q    Q    Q     
--2---------0----5--4--|--5--4--5--2--4----2--0--|--2-------------------|----------------------|
-------3---------3-----|--------3----------3-----|-------3---------3----|-------3---------3----|
-------6---------4-----|--------2----------4-----|-------6---------4----|-------2---------4----|
--4---------2----------|--0----------------------|--0-------------------|----------------------|
-----------------------|--------------4----------|------------2---------|--0-------------------|
-----------------------|-------------------------|----------------------|------------4---------|


  Q    Q    Q    Q       E  E  Q    Q    E  E     Q    E  E  Q    Q       Q    Q    Q    E  E   
----------------------|--0-----0------------0--|--2----0-----0---------|-------0----2----0-----|
-------3---------3----|-----4-------2----4-----|----------4-------2----|--4-----------------4--|
-------6---------4----|--------2---------4-----|-------2----------4----|-------2---------4-----|
----------------------|--------2---------2-----|-------2----------2----|-------2---------2-----|
----------------------|--0---------------------|--0--------------------|--0--------------------|
--2---------4---------|-------------3----------|-------------3---------|------------3----------|


  Q    Q    Q    Q       Q    E  E  Q    Q       Q    Q    Q    Q       Q    E  E  Q    Q     
--0-------------------|-----------------------|----------------------|-----------------------|
----------------------|-----------------------|----------------------|-----------------------|
-------2---------4----|-------2--2-------0----|-------2---------0----|-------2--2-------0----|
-------2---------2----|-------2--2-------0----|-------2---------0----|-------2--2-------0----|
--0-------------------|--0--------------------|--0-------------------|--0--------------------|
------------3---------|-------------3---------|------------3---------|-------------3---------|


                                                                                 |---3---|             
  Q    Q    Q    Q       E  E  E  E  Q    E  E     E  E  Q    Q    E  E     Q    E   E   E  Q    Q     
----------------------|--------------0----------|------------------------|----------------------------|
----------------------|--------0--1-------3--1--|--0--1--3----3----1--0--|--1----0h--1p--0------------|
-------2---------0----|--------2----------4-----|--------4---------4-----|------------------2---------|
-------2---------0----|--2--3-------------------|------------------------|----------------------------|
--0-------------------|--------3----------3-----|--------3---------3-----|-------3---------------3----|
------------3---------|--1-----------1----------|--1----------1----------|--1---------------1---------|


  Q    Q    Q    Q       E  E  E  E  Q    E  E     E  E  Q    Q    Q       E  E  E  E  Q    E  E   
----------------------|-------------------------|-----------------------|-------------------------|
----------------------|--------2----------2-----|--------1---------1----|-----------1--2----1-----|
----------------------|-----------0--1----0-----|--------0----0---------|--3--2--3----------3--3--|
----------------------|--3--2--3-------------3--|--2--3-----------------|-------------------------|
-------3---------3----|--4-----------4----------|--3----------3---------|--1-----4-----1----------|
--1---------1---------|-------------------------|-----------------------|-------------------------|


  E  E  Q    Q    E  E     Q    Q    Q    Q       Q    E  E  E  E  E  E     Q    Q    Q    Q     
------------------------|--0-------------------|-------0-----0--2--0-----|--2-------------------|
--1--2--4----4----2--4--|-------2---------2----|-------2--4--------2--4--|-------4----0---------|
--------1---------1-----|-------1----1---------|-------------------------|-------4---------4----|
------------------------|----------------------|-------------------------|----------------------|
------------------------|--4---------4---------|--4----------4-----------|--2---------2---------|
--4----------4----------|----------------------|-------------------------|----------------------|


  Q    Q    Q    Q       Q    E  E  E  E  E  E     Q    Q    Q    Q       Q    Q    Q    Q     
----------------------|-------0--2--3--2--0--2--|----------------------|----------------------|
----------------------|-------------------------|--4--------------1----|--0-------------------|
-------4---------4----|-------------0-----------|------------0---------|------------0---------|
----------------------|--4----1-----------2-----|--4----1---------2----|--4----1---------2----|
--2---------2---------|--2----------2-----------|--2---------2---------|--2---------2---------|
----------------------|-------------------------|----------------------|----------------------|


  Q    Q    Q    Q       Q    E  E  E  E  E  E     Q    Q    Q    Q       Q    Q    Q    Q     
----------------------|-------2--3--5--3--2--3--|--2--------------0----|----------------------|
----------------------|-------------0-----------|------------0---------|--4-------------------|
------------0---------|--2----------------0-----|--2--------------0----|--2----2----0---------|
--4----1---------2----|-------4-----------------|-------4--------------|-----------------4----|
--2---------2---------|--5----------5-----------|--5---------5---------|----------------------|
----------------------|-------------------------|----------------------|----------------------|


  Q    Q    Q    Q       
-----------------------||
-----------------------||
----------------------*||
--2----1--------------*||
------------3----2-----||
-----------------------||




Duration Legend
---------------
W - whole
H - half
Q - quarter
E - 8th
|-n-|  - n-tuplets


Tablature Legend
----------------
L - tied note
h - hammer on
p - pull off
Login or Register to remove this ad.

10 comments on Vivi's Theme (Solo)

your tabs have come a long

your tabs have come a long way, bro, good stuff

Hehe, thanks. But I made

Hehe, thanks. But I made this more than a year ago. Personally, I don't think it's a very good tab. Anyway, please don't call me "bro" :-)

Lady Auriplane, this sounds

5

Lady Auriplane, this sounds awesome! The bass line is pretty fun to play along with the main melody. Very tricky.

I'd like to see the duet version as well, It must be nice to hear this song in two guitar.

The duet version is on this

The duet version is on this site :-) I made it first. I recorded this one too, though it sounds kind of bad--you should check out Randolf's recording of my duet!! It made me very happy when they posted it, because it sounds much better than my own recording ^-^

http://www.gametabs.net/recording/randolf/ashford-abbey

EDIT: Here's the link to the duet tab: http://www.gametabs.net/final-fantasy-ix/vivis-theme

awesome !

5

It's neet stuff man, requested this a while back, love it ^^

Regarding the duet version

4

You know, you're right, the duet version is certainly more full sounding. But I like the first half better as a solo. The second half sound much nicer as a duet I think.

I am curious however, why did you decide to jump up to fifth position so much? did you do it to preserve the sound of the notes? because otherwise, It would be easier to play much of this in open position.

P.s. You have some the most interesting compositions on this site, thank you for continuing to post new and exciting things :D

Um, because it's easier.

Um, because it's easier.

duet

I suppose the more specific question is: why does the composition favor playing the low D on the A string as opposed to playing it open on the D string, and so on for the G on the D string and the A on the E string? I get the feeling that this is not a final composition, as it is pretty tricky to play - lots of jumping and awkward stretches. But regardless, it sounds really nice as a solo piece. I think that it could benefit from a bit of fine tuning. I'm no good at it though. My intention is not to be offensive with this comment; my intention is only to provide constructive criticism.

Well, it's not a very good

Well, it's not a very good tab or anything. But I think the reason I did the D on A is to let the F# on the D string ring out. I don't see any A on the E string, BTW.

ummm como que soy el unico

5

ummm como que soy el unico que habla espaƱol....-_-'

este tab tiene la aprovaciĆ³n de mi pulgar