Ads

Vivi's Theme (Final Fantasy IX) Guitar Tab

Submitted: Jul 05, 2010 by Daugreano

5
Average: 5 (7 votes)
Download | Listen
Game: Final Fantasy IX
Composer(s): Nobuo Uematsu
Style: Transcription
Series: Final Fantasy

AutoScroll: Slow | Medium | Fast
Song: Vivi's Theme
Final Fantasy Ix
Composer: Nobuo Uematsu
Tabbed by: Daugreano


Guitar: 



   Q    Q    Q    E   E     E   E   E   E   Q    E   E     Q    Q    Q    E   E
E|-6----6----6----5-------|---------5--------------------|-6----6----6----5-------|
B|--------------------8---|-7---8-------7--------5---7---|--------------------8---|
G|------------------------|-----------------7------------|------------------------|
D|------------------------|------------------------------|------------------------|
A|------------------------|------------------------------|------------------------|
E|------------------------|------------------------------|------------------------|


   Q    Q    H       Q    Q    Q    E   E     E   E   E   E   Q    E   E     Q    E   E   Q    Q
E|-8----5----------|-6----6----6----5-------|---------5--------------------|------------------------|
B|-----------6-----|--------------------8---|-7---8-------7--------5---7---|-8----5---6---8----5----|
G|-----------------|------------------------|-----------------7------------|------------------------|
D|-----------------|------------------------|------------------------------|------------------------|
A|-----------------|------------------------|------------------------------|------------------------|
E|-----------------|------------------------|------------------------------|------------------------|


   E   E   E   E   Q    E   E     Q    Q    E   E   E   E     W        Q    Q    E   E   E   E
E|------------------------------|------6----10--8---6---5---|--------|------6----10--8---6---5---|
B|------------------------------|-8-------------------------|-9------|-8-------------------------|
G|-5---7---8---5------------5---|---------------------------|--------|---------------------------|
D|-----------------6----8-------|---------------------------|--------|---------------------------|
A|------------------------------|---------------------------|--------|---------------------------|
E|------------------------------|---------------------------|--------|---------------------------|


   Q    Q    E   E   E   E     W        E   E   Q    Q    E   E     Q    E   E   Q    Q
E|------12---7---9---11--12--|-14-----|-12--11--12---9----11--12--|-14---12--11--12---9----|
B|-9-------------------------|--------|---------------------------|------------------------|
G|---------------------------|--------|---------------------------|------------------------|
D|---------------------------|--------|---------------------------|------------------------|
A|---------------------------|--------|---------------------------|------------------------|
E|---------------------------|--------|---------------------------|------------------------|


   Q    Q    Q    E   E     W        W        W        E   E   E   E   Q    E   E 
E|-11---12---14---12--11--|-12-----|-L------|-L------|-5---4---5---2---4----2---0---|
B|------------------------|--------|--------|--------|------------------------------|
G|------------------------|--------|--------|--------|------------------------------|
D|------------------------|--------|--------|--------|------------------------------|
A|------------------------|--------|--------|--------|------------------------------|
E|------------------------|--------|--------|--------|------------------------------|



   Q    Q    Q    E   E     E   E   E   E   Q    E   E     W        W        W
E|-2---------0----5---4---|-5---4---5---2---4----2---0---|-2------|-L------|-L------|
B|------3-----------------|------------------------------|--------|--------|--------|
G|------------------------|------------------------------|--------|--------|--------|
D|------------------------|------------------------------|--------|--------|--------|
A|------------------------|------------------------------|--------|--------|--------|
E|------------------------|------------------------------|--------|--------|--------|


   E   E   Q    Q    E   E     Q    E   E   Q    Q      Q    Q    Q    E   E     W
E|-12--11--12---9----11--12--|-14---12--11--12---9----|-11---12---14---12--11--|-12-----|
B|---------------------------|------------------------|------------------------|--------|
G|---------------------------|------------------------|------------------------|--------|
D|---------------------------|------------------------|------------------------|--------|
A|---------------------------|------------------------|------------------------|--------|
E|---------------------------|------------------------|------------------------|--------|



   W        W        W        W        E   E   E   E   Q    E   E     E   E   Q    Q    E   E
E|-L------|-L------|-L------|-L------|------------------------------|---------------------------|
B|--------|--------|--------|--------|-----------------5----3-------|---------3----3------------|
G|--------|--------|--------|--------|---------2---5------------5---|-4---5-------------5---4---|
D|--------|--------|--------|--------|-2---3------------------------|---------------------------|
A|--------|--------|--------|--------|------------------------------|---------------------------|
E|--------|--------|--------|--------|------------------------------|---------------------------|



   Q    S  S  Q   H       W        E   E   E   E   Q    E   E     E   E   Q    H
E|----------------------|--------|------------------------------|--------------------|
B|----------------------|--------|------------------------------|--------------------|
G|-5----4H-5P-4---2-----|-L------|------------------------------|--------------------|
D|----------------------|--------|------------------------------|--------------------|
A|----------------------|--------|------------------------------|--------------------|
E|----------------------|--------|-1---0---1---3---4----3---1---|-0---1---3----3-----|

 
   E   E   E   E   Q    E   E     E   E   Q    Q    E   E     Q    Q    H       Q    E   E   E   E   E   E
E|------------------------------|---------------------------|-----------------|------------------------------|
B|------------------------------|---------------------------|-----------------|------------------------------|
G|------------------------------|---------------------------|-----------------|------------------------------|
D|------------------------------|---------1----1--------1---|-2---------------|------2---1---2---4---2---1---|
A|-1---0---1---3---4----3---1---|-3---4-------------4-------|------4----------|------------------------------|
E|------------------------------|---------------------------|-----------4-----|------------------------------|


   Q    Q    H       W        Q    E   E   E   E   E   E     H.     Q      W
E|-----------------|--------|-14---12--14--15--14--12--14--|-11-----8----|-7------|
B|-----------------|--------|------------------------------|-------------|--------|
G|-----------------|--------|------------------------------|-------------|--------|
D|-4----1----------|--------|------------------------------|-------------|--------|
A|-----------2-----|-L------|------------------------------|-------------|--------|
E|-----------------|--------|------------------------------|-------------|--------|

   W        Q    E   E   E   E   E   E     H.     S  S  Q     W
E|-L------|-17---14--15--17--15--14--15--|-14-----12H14P12--|-11-----|
B|--------|------------------------------|------------------|--------|
G|--------|------------------------------|------------------|--------|
D|--------|------------------------------|------------------|--------|
A|--------|------------------------------|------------------|--------|
E|--------|------------------------------|------------------|--------|

Then repeat or whatever...
Login or Register to remove this ad.

3 comments on Vivi's Theme

Regarding recent submissions

5

Hey daguerano! I have been watching your recent submissions and I like the fact that you have been tabbing some rather obscure pieces for which I have not seen any other tabs. You are doing great job, and they sound really nice. That being said, do you think that you could make some arrangements for tabs with a bass melody as well? For clarity's sake, I mean: could you make some classical arrangements?

Sorry...

I don't think that'll happen anytime (too) soon...I try and make tabs that are simple but sound nice and clear, even for a beginner...plus i'm not that good myself so i probably couldn't arrange songs in a way that is playable...Oh well, someday i'll be good enough to though, hopefully.

:P

5

Aw, thats fine. You are doing a good good