Vivi's Theme (Duet) (Final Fantasy IX) Guitar Tab

Submitted: Jul 04, 2009 by auriplane (Last updated: Jun 23, 2010)

5
Average: 5 (3 votes)
Download | Listen
Game: Final Fantasy IX
Composer(s): Nobuo Uematsu
Style: 2 or more instruments, Arrangement, Fingerstyle
Series: Final Fantasy

AutoScroll: Slow | Medium | Fast
                  Final Fantasy IX - Vivi's Theme (Duet)
                        Song by Nobuo Uematsu

             Arranged & tabbed by auriplane ([email protected])                



Guitar 1: Standard tuning, capo on 4.
Guitar 2: Standard tuning.

    Part A

|----------------|----------------|----------------|----------------|
|----0-------0---|----0-------0---|----0-------1---|----3-------4---|
|----------------|----------------|------0-----1---|----3-------4---|
|----------------|----------------|----------------|----------------|
|----------------|----------------|----------------|----------------|
|----------------|----------------|----------------|----------------|
|                |                |                |                |
|----------------|----------------|----------------|----------------|
|----------------|----------------|----------------|----------------|
|2-------0-------|2-------0-------|2-------0-------|2-------0-------|
|2-------0-------|2-------0-------|2-------0-------|2-------0-------|
|----------------|----------------|----------------|----------------|
|----------------|----------------|----------------|----------------|



|----------------|----------------|----------------|----------------|
|----0-------0---|----0-------0---|----0-------1---|----3-------4---|
|----------------|----------------|------0-----1---|----3-------4---|
|----------------|----------------|----------------|----------------|
|----------------|----------------|----------------|----------------|
|----------------|----------------|----------------|----------------|
|                |                |                |                |
|----------------|----------------|----------------|----------------|
|----------------|----------------|----------------|----------------|
|2-------0-------|2-------0-------|2-------0-------|2-------0-------|
|2-------0-------|2-------0-------|2-------0-------|2-------0-------|
|----------------|----------------|----------------|----------------|
|----------------|----------------|----------------|----------------|


    Part B

|2---2---2---1---|----1-----------|2---2---2---1---|4---1-----------|
|--------------4-|3-4---3-----1-3-|--------------4-|--------2-------|
|----------------|--------3-------|----------------|----------------|
|----------------|----------------|----------------|----------------|
|----------------|----------------|----------------|----------------|
|----------------|----------------|----------------|----------------|
|                |                |                |                |
|----------------|----------------|----------------|----------------|
|----------------|----1-------1---|----------------|----1-------1---|
|----0-------0---|----------------|----0-------0---|----------------|
|----------------|----------------|----------------|----------------|
|----------------|0---------------|----------------|0---------------|
|3---------------|----------------|3---------------|----------------|
                                                              
            

|2---2---2---1---|----1-----------|----------------|----------------|
|--------------4-|3-4---3-----1-3-|4---1-3-4---1---|----0-----------|
|----------------|--------3-------|----------------|1-3---1-------1-|
|----------------|----------------|----------------|--------2---4---|
|----------------|----------------|----------------|----------------|
|----------------|----------------|----------------|----------------|
|                |                |                |                |
|----------------|----------------|----------------|----------------|
|----------------|----1-------1---|----------------|----------------|
|----0-------0---|----------------|----0-------0---|----------------|
|----------------|----------------|----------------|----1-------1---|
|----------------|0---------------|----------------|----------------|
|3---------------|----------------|3---------------|4---------------|



|----------------|----------------|
|----------------|----------------|
|--------3-1-----|----------------|
|1---4-------4-3-|2---------------|
|----------------|----------------|
|----------------|----------------|
|                |                |             
|----------------|----------------|
|----------------|----------------|
|--------0-------|----1---1-------|
|----0-----4-3-2-|1---------------|
|1---------------|----------------|
|----------------|----------------|



|----------------|----------------|----------------|
|----------------|----1-------0-1-|0---------------|
|--------3-1-----|--------0-2-----|0---------------|
|1---4-------4-3-|2---------------|----------------|
|----------------|----------------|----------------|
|----------------|----------------|----------------|
|                |                |                |                
|----------------|----------------|2---------------|
|----------------|----------------|----------------|
|--------0-------|--------0-------|----------------|
|----0-----4-3-2-|1---------------|----------------|
|1---------------|----------------|2---------------|
|----------------|----------------|----------------|


    Part C

|----------------|----------------|----------------|
|1-0-1-------0-1-|3---1-0-1-------|0---1---3---1-0-|
|--------2-------|------------2---|----------------|
|----------------|----------------|----------------|
|----------------|----------------|----------------|
|----------------|----------------|----------------|
|                |                |                |                
|----------------|----------------|----------------|
|------------0---|------------0---|------------0---|
|----2-----------|----2-----------|----2-----------|
|----2-------2---|----2-------2---|----2-------2---|
|0---------------|0---------------|0---------------|
|--------3-------|--------3-------|--------3-------|



|----------------|----------------|----------------|
|1---------------|L---------------|L---------------|
|----------------|----------------|----------------|
|----------------|----------------|----------------|
|----------------|----------------|----------------|
|----------------|----------------|----------------|
|                |                |                |                
|----------------|----------------|----------------|
|------------0---|------------0---|------------0---|
|----2-----------|----2-----------|----2-----------|
|----2-------2---|----2-------2---|----2-------2---|
|0---------------|0---------------|0---------------|
|--------3-------|--------3-------|--------3-------|



|1-0-1---0-------|------------1-0-|1-0-1---0-------|
|------3-----3-1-|3-------1-------|------3-----3-1-|
|----------------|----3-----------|----------------|
|----------------|----------------|----------------|
|----------------|----------------|----------------|
|----------------|----------------|----------------|
|                |                |                |                
|----------------|----------------|----------------|
|----3-------3---|----3-------3---|----3-------3---|
|----2-------4---|----6-------4---|----2-------4---|
|0-------2-------|4-------2-------|0---------------|
|----------------|----------------|--------4-------|
|----------------|----------------|----------------|



|----------------|----------------|----------------|
|3---------------|L---------------|L---------------|
|----------------|----------------|----------------|
|----------------|----------------|----------------|
|----------------|----------------|----------------|
|----------------|----------------|----------------|
|                |                |                |                
|----------------|----------------|----------------|
|----3-------3---|----3-------3---|----3-------3---|
|----6-------4---|----2-------4---|----6-------4---|
|0---------------|----------------|----------------|
|--------2-------|0---------------|----------------|
|----------------|--------4-------|2-------4-------|


    Part D

|----------------|----------------|----------------|----------------|
|1-0-1-------0-1-|3---1-0-1-------|0---1---3---1-0-|1---------------|
|--------2-------|------------2---|----------------|----------------|
|----------------|----------------|----------------|----------------|
|----------------|----------------|----------------|----------------|
|----------------|----------------|----------------|----------------|
|                |                |                |                |
|----------------|----------------|----------------|----------------|
|------------0---|------------0---|------------0---|------------0---|
|----2-----------|----2-----------|----2-----------|----2-----------|
|----2-------2---|----2-------2---|----2-------2---|----2-------2---|
|0---------------|0---------------|0---------------|0---------------|
|--------3-------|--------3-------|--------3-------|--------3-------|



|----------------|----------------|----------------|----------------|
|1---------------|L---------------|L---------------|L---------------|
|----------------|----------------|----------------|----------------|
|----------------|----------------|----------------|----------------|
|----------------|----------------|----------------|----------------|
|----------------|----------------|----------------|----------------|
|                |                |                |                |
|----------------|----------------|----------------|----------------|
|----------------|----------------|----------------|----------------|
|----2-2-----0---|----2-------0---|----2-2-----0---|----2-------0---|
|----2-2-----0---|----2-------0---|----2-2-----0---|----2-------0---|
|0---------------|0---------------|0---------------|0---------------|
|--------3-------|--------3-------|--------3-------|--------3-------|


                                       T T T
|----------------|----------------|----------------|----------------|
|--------1-------|----------------|----------------|----------------|
|------1-----3-1-|0-1-3---3---1-0-|1--0h1p0--------|----------------|
|----3-----------|----------------|--------3-------|L---------------|
|3-4-------------|----------------|----------------|----------------|
|----------------|----------------|----------------|----------------|
|                |                |                |                |
|----------------|----------------|----------------|----------------|
|----0-------0---|----0-------0---|----0-------0---|----0-------0---|
|----------------|----------------|----------------|----------------|
|----------------|----------------|----------------|----------------|
|----3-------3---|----3-------3---|----3-------3---|----3-------3---|
|1-------1-------|1-------1-------|1-------1-------|1-------1-------|


    Part E

|----------------|----------------|----------------|----------------|
|----------------|----------------|----------------|----0---0-----0-|
|----------------|----------------|------1-2---1---|1-2---------2---|
|------1-2---1---|----1---1-------|4-3-4---------4-|----------------|
|4-3-4---------4-|3-4-------------|----------------|----------------|
|----------------|----------------|----------------|----------------|
|                |                |                |                |
|----------------|----------------|----------------|----------------|
|----2-------2---|----1-------1---|----------------|----------------|
|----------------|----------------|----3-------3---|----1-------1---|
|----------------|----------------|----------------|----------------|
|4-------4-------|3-------3-------|1-------1-------|----------------|
|----------------|----------------|----------------|4-------4-------|



|----------------|----------------|----------------|----------------|
|1---------------|----1-0-1-3-1-0-|3---0-----------|----------------|
|----2-----------|----------------|--------0-------|L---------------|
|--------2-------|----------------|----------------|----------------|
|----------------|----------------|----------------|----------------|
|----------------|----------------|----------------|----------------|
|                |                |                |                |
|----------------|----------------|----------------|----------------|
|----2-------2---|----2-------2---|----------------|----------------|
|----------------|----------------|----4-------4---|----4-------4---|
|----------------|----------------|----------------|----------------|
|4-------4-------|4-------4-------|2-------2-------|2-------2-------|
|----------------|----------------|----------------|----------------|



|----------------|----------------|----------------|----------------|
|----1-3-4-3-1-3-|0---------------|----------------|----------------|
|----------------|------------1---|0---------------|L---------------|
|----------------|----------------|----------------|----------------|
|----------------|----------------|----------------|----------------|
|----------------|----------------|----------------|----------------|
|                |                |                |                |
|----------------|----------------|----------------|----------------|
|----------------|----------------|----------------|----------------|
|--------0-------|--------0-------|--------0-------|--------0-------|
|4---1-------2---|4---1-------2---|4---1-------2---|4---1-------2---|
|2-------2-------|2-------2-------|2-------2-------|2-------2-------|
|----------------|----------------|----------------|----------------|



|--------1-------|----------------|----------------|----------------|
|----3-4---4-3-4-|3-----------1---|0---------------|L---------------|
|----------------|----------------|----------------|----------------|
|----------------|----------------|----------------|----------------|
|----------------|----------------|2---------------|L---------------|
|----------------|----------------|----------------|----------------|
|                |                |                |                |
|----------------|----------------|----------------|----------------|
|--------0-------|--------0-------|----------------|----------------|
|2-----------0---|2-----------0---|2---2---0-------|----------------|
|0---4---0-------|0---4---0-------|------------4---|2---1-----------|
|----------------|----------------|----------------|--------3---2---|
|----------------|----------------|----------------|----------------|
Login or Register to remove this ad.

2 comments on Vivi's Theme (Duet)

fun tab!

great tab

Indeed

Nice work