Vamo Alla Flamenco (Final Fantasy IX) Mandolin Tab

Submitted: Jun 03, 2009 by LoneCentrist (Last updated: Feb 04, 2010)

5
Average: 5 (1 vote)
Download | Listen
Game: Final Fantasy IX
Composer(s): Nobuo Uematsu
Style: Transcription
Series: Final Fantasy

AutoScroll: Slow | Medium | Fast
Vamo Alla Flamenco
Final Fantasy IX
Composed by Nobou Uematsu
Tabbed by Rob Van
6/2/09


E|-------------------------------------------|
A|-0---0-3-2-0-2----------0---0-3-2-0-5--2---|
D|---6------------6-2-4-6---6--------------5-|
G|-------------------------------------------|

E|-------0-------------------------------|
A|-3-2-3---5-3-5--2---0-2-3---2----0---0-|
D|------------------5----------------6---|
G|---------------------------------------|

E|---0-5--5-4-2-4-5--5-7-5-7-5-7-5-4-2-4-5-|
A|-3---------------------------------------|
D|-----------------------------------------|
G|-----------------------------------------|

E|---0-5--5-4-2-4-5--5-10-8-7-5-7-5-4-|
A|-3----------------------------------|
D|------------------------------------|
G|------------------------------------|
Login or Register to remove this ad.