Theme of the Tantalus (SongeLeReveur Version) (Final Fantasy IX) Guitar Tab

Submitted: Jul 08, 2010 by ForestMarth

5
Average: 5 (1 vote)
Download | Listen
Game: Final Fantasy IX
Composer(s): Nobuo Uematsu
Style: 2 or more instruments, Arrangement, Transcription
Series: Final Fantasy

AutoScroll: Slow | Medium | Fast
                   Final Fantasy IX - Theme of the Tantalus                     

Composed by : Nobuo Uematsu

Arranged by : Songe Le Rêveur

Tabbed by : ForestMarth

Platform : PlayStation


I'm sorry but rythm is not respected (here and in the Guitar Pro file).
Don't hesitate to take this tab and put it rythm ! :-)
Look at SongeLeReveur video to hear the rythm.

Songe Le Rêveur uses here a lot of dead notes (x). I'm sorry but I didn't tab it (too complicated!).
These dead notes must be played with feeling :)

I recommend to play Guitar 1 bass notes with palm mute technique (PM) even if I didn't write it in the tab.


Guitar 1



          
E||----------------------------------------------------------------------
B||-------4----3h--4--4-----------4----6----4-----------4----3h--4--4----
G||-------3----3------3-----------3----3----3-----------3----3------3----
D||-------5----3h--5--5-----------5----5----5-----------5----3h--5--5----
A||--3---------3-------------3---------3-----------3---------3-----------
E||----------------------------------------------------------------------


     
------------------------------------------------------------8S--7S--8--8--
-------4----4-----------------4----3h--4--4------------7----7S--6S--7--7--
-------3----4-----------------3----3------3------------5----7S--6S--7--7--
-------5----3-----------------5----3h--5--5------------7----7S--6S--7--7--
--3---------4-----------2--3-------3-------------4--5---------------------
--------------------------------------------------------------------------


       
---------------------------------------------------------------------------
---------3-------------------------4----6----6------------4----3h--4--4----
---------2------------4------------5----7----7------------3----3------3----
--------(3)-----------3------------5----6----6------------5----3h--5--5----
--1--2---2-----------(5)-----------6----8----8------2--3-------3-----------
---------------2--3---3-------4----4----6----6-----------------------------


        
-------------8S--7S--8--8------------------------------
--------7----7S--6S--7--7-----------3------------------
--------5----7S--6S--7--7-----------2------------4-----
--------7----7S--6S--7--7----------(3)-----------3-----
--4--5-----------------------1--2---2-----------(5)----
------------------------------------------2--3---3-----


        
---------------------------------------------------
--------4----6----6-----------(8)----(6)----(6)----
--------5----7----7------------8------7------7-----
--------5----6----6------------8------8------8-----
--------6----8----8------6------------6------------
--3--4--4----6----6--------------------------------


       
-------------------------------------------11----11----
-------6----5S--6--------6----------(8)-----8-----8----
-------5----4S--5--------5-----------8------8-----8----
-------6----5S--6--------6-----------8------8----------
--5---------4S--5--(5)--(5)----------------------------
-------------------------------8-----------------------


        
---------------------------------------------------
-------------8----8-------------------4------4-----
--------8----8----8------------5------5------5-----
--------8----8----8------------5------5------5-----
------------------------------(6)----(6)----(6)----
--4--6-------6-----------4------------4------------


        
----------------------------------------------------------------
--------6------4S----6----6------------(8)----(7)S--(8)--(8)----
--------7------5S----7----7-------------8------7S----8----8-----
--------6------4S----6----6-------------8------7S----8----8-----
-------(8)----(6)S--(8)--(8)------6------------5S----6----------
--6------------4S----6------------------------------------------


     
------------------------------------------10----10----
--------(4)------------------------(8)-----8-----8----
---------4--------------------------8------8-----8----
---------3--------------------------8------8----------
------------------------------------------------------
--4--3---3-----6--7--10--9----8-----------------------


        
--------------10----10----------------6----6----------------5----5----
---------6-----9-----9-----------5----5----5-----------4----4----4----
---------7----10----10-----------5----5----5-----------5----5----5----
---------6-----9-----------------5----5----------------4----4---------
----------------------------------------------------------------------
--(7)-----------------------6---------------------5-------------------


       
-----------------------------------------------------2---------------
-------4----3S--4--4-----------4----3----------------2-------2--2----
-------5----4S--5--5-----------3----3----------------3-------3--3----
-------5----4S--5--5-----------5----5----------------4-------4--4----
--------------------------6----6----5--------------------------------
--4---------3S--4-------------------3----------2--2-------2--2-------


      
-------4---4--------------------------------------------
-------2---2---2-------4----------(1)---------(1)--(1)--
-------3---3---3-------3-----------3-----------3----3---
-------4--(4)--4-------4-----------3-----------3----3---
--------------------------------------------------------
--2------------2----2-------1--1---------1-----1--------


       
----------1-----1----1-----------5----4S--5--5-----------5--------------
----------1-----1----1-----------4----3S--4--4-----------4---------1----
----------3-----3----3-----------5----4S--5--5-----------5---------2----
--(3)----(3)----3-----------3---------2S--3---------3--------------1----
------------------------------------------------------------------------
--------------------------------------------------------------2---------


       
----------------------------------------------------------------------
-------4----3h--4--4-----------4----6----4-----------4----3h--4--4----
-------3----3------3-----------3----3----3-----------3----3------3----
-------5----3h--5--5-----------5----5----5-----------5----3h--5--5----
--3---------3-------------3---------3-----------3---------3-----------
----------------------------------------------------------------------


     
--------------------------------------------------------------8S--7S--8--8--
-------4----4-------------------4----3h--4--4------------7----7S--6S--7--7--
-------3----4-------------------3----3------3------------5----7S--6S--7--7--
-------5----3-------------------5----3h--5--5------------7----7S--6S--7--7--
--3---------4-----------(2)--3-------3-------------4--5---------------------
----------------------------------------------------------------------------


       
-----------------------------------------------------
---------3----------------------------4---------6----
---------2------------4---------------5---------7----
--------(3)-----------3---------------5---------6----
--1--2---2-----------(5)--------------6---------8----
---------------2--3---3-------(0)--4--4----6----6----


     
--------------------------------------8S--7S--8--8--
--------4----3h--4--4------------7----7S--6S--7--7--
--------3----3------3------------5----7S--6S--7--7--
--------5----3h--5--5------------7----7S--6S--7--7--
--2--3-------3-------------4--5---------------------
----------------------------------------------------


      
---------------------------------------------------------------------------
---------3-------------------------4---------6------------4----3h--4--4----
---------2------------4------------5---------7------------3----3------3----
--------(3)-----------3------------5---------6------------5----3h--5--5----
--1--2---2-----------(5)-----------6---------8------2--3-------3-----------
---------------2--3---3-------4----4----6----6-----------------------------


                    
------------------6-----------------------|
--------6----4----4------3----------------|
--------5----4----4------3----------------|
--------6----3----3------1----------------|
--4--5-------4-----------3----------------|
------------------------------------------|




Guitar 2



            
E||----------------------------------------------------------------------
B||------------------6------6h----7----7----7------/6----6----6----6h----
G||--/5----7----8--------------------------------------------------------
D||----------------------------------------------------------------------
A||----------------------------------------------------------------------
E||----------------------------------------------------------------------


      
--------------------------------------------------------------------
--8-------------------------------------6------6h----7----7----7----
-------8----5----5------3--5--7----8--------------------------------
--------------------------------------------------------------------
--------------------------------------------------------------------
--------------------------------------------------------------------


       
------------------------------------------------------------------------
--6---------6----8------/8----9----9--8--9--11\----8----6h----8----8----
-------8----------------------------------------------------------------
------------------------------------------------------------------------
------------------------------------------------------------------------
------------------------------------------------------------------------


          
-----------------------------------------------------------------------
--8g9----8----6---------------------------6------6h----7----6----------
--------------------------8----5h----8---------------------------8\----
-----------------------------------------------------------------------
-----------------------------------------------------------------------
-----------------------------------------------------------------------


       
----------------------------------------------------------------------------
----------------------------------------------------------------------------
--8--8--7----8----/10------10----8----10\-----------12----10----12----13----
----------------------------------------------------------------------------
----------------------------------------------------------------------------
----------------------------------------------------------------------------


        
----------------------------------------10----11----
----------------------------12----13----------------
--------------10----12------------------------------
--12----13------------------------------------------
----------------------------------------------------
----------------------------------------------------


       
--10----11----13------------10S----11----10----11----
--------------------13-------------------------------
-----------------------------7S-----8-----7-----8----
-----------------------------------------------------
-----------------------------------------------------
-----------------------------------------------------


        
--13----12----13----15------13----11S----(10)S----8----
-------------------------------------------------------
--10-----9----10----12------10-----8S-----(7)S----5----
-------------------------------------------------------
-------------------------------------------------------
-------------------------------------------------------


                                                      PM   PM    PM   PM    
        
--7g8----10----11--11------------------------------------------------------
-----------------------11------9----7S----6--------------------------------
--4g5-----7-----8---8--------------------------------------3h----5----5----
------------------------8------6----4S----3-----------5--------------------
---------------------------------------------------------------------------
---------------------------------------------------------------------------


  PM   PM    PM   PM     PM PM PM    PM   PM     PM   PM   PM   PM    
       
---------------------------------------------------------------------
---------------------------------------------------------------------
--3----3h----5----5------------3h----5----5-----------3----5----6----
-------------------------5--5--------------------5-------------------
---------------------------------------------------------------------
---------------------------------------------------------------------


      
---------------------------------------------------------------------------
------------------6------6h----7----7----6g7------6----6\----6h--8---------
--/5----7----8------------------------------------------------------8--5\--
---------------------------------------------------------------------------
---------------------------------------------------------------------------
---------------------------------------------------------------------------


      
--------------------------------------------------------------------
------------------6------6h----7----7----7------6---------6----8----
--3--5--7----8---------------------------------------8--------------
--------------------------------------------------------------------
--------------------------------------------------------------------
--------------------------------------------------------------------


       
------------------------------------------------13----11----10----9g10----|
--8----9----9----8------9----11----13-------------------------------------|
------------------------------------------------10-----8-----7-----6g7----|
--------------------------------------------------------------------------|
--------------------------------------------------------------------------|
--------------------------------------------------------------------------|






Tablature Legend
----------------
L - tied note
x - dead note
g - grace note
(n) - ghost note
> - accentuded note
NH - natural harmonic
AH - artificial harmonic
TH - tapped harmonic
SH - semi harmonic
PH - pitch harmonic
h - hammer on
p - pull off
b - bend
br - bendRelease
pb - preBend
pbr - preBendRelease
brb - bendReleaseBend
\n/ - tremolo bar dip
\n - tremolo bar dive
-/n - tremolo bar Release up
/n\ - tremolo bar inverted dip
/n - tremolo bar return
-\n - tremolo bar Release down
S - shift slide
s - legato slide
/ -  slide into from below or out of upwards
\ -  slide into from above or out of downwards
~ - vibrato
W - wide vibrato
tr - trill
TP - tremolo picking
T - tapping
S - slap
P - pop
< - fade in
^ - brush up
v - brush down
PM - palm mute
Login or Register to remove this ad.