Login or Register to remove this ad.

Theme of the Tantalus (Final Fantasy IX) Guitar Tab

Submitted: Nov 03, 2009 by kenor

4.944445
Average: 4.9 (18 votes)
Download | Listen
Game: Final Fantasy IX
Composer(s): Nobuo Uematsu
Style: Arrangement, Fingerstyle
Series: Final Fantasy

AutoScroll: Slow | Medium | Fast
Theme of the Tantalus
~Final Fantasy IX~ 
Composed by: Nobuo Uematsu
Arranged by: kenor

                           |-3-|
Rhythm: 4/4 metrum;  E  E = E   S
Capo 3


      Q    Q    E  E  E  E     Q    Q    E  E  E  E     Q    Q    E  E  E  E
E||-------------------------|------------------------|------------------------|
B||--------1----0--1--------|--1----1----0--1-----1--|-------1----0--1--------|
G||*-------2----2-----------|--2----2----2--------2--|-------2----2-----------|
D||*---------------------2--|------------------------|---------------------2--|
A||---0----0----------0-----|-------0----------0-----|--0----0----------0-----|
E||-------------------------|------------------------|------------------------|


  Q    Q    E  E  E  E     E  E  E  E  E  E  E  E     E  E  E  E  E  E  E  E   
------------------------|--------------------------|--------------------------|
--1----1----3--1--------|--------0-----1-----3-----|--4--4--L--4--L-----------|
--2----2----4--2--------|--2-----2-----0-----2-----|--2--2--L--2--L-----------|
---------------------2--|-----------2--------------|--------------1--1--------|
-------0----------0-----|--0--0-----------0--0-----|--------3-----------0--0--|
------------------------|-----------------------0--|--2-----------------------|


  E  E  E  E  E  E  E  E     E  E  E  E  E  E  E  E     E  E  E  E  E  E  E  E   
-----------------------0--|--------------------------|--------------------------|
--3--3--L--3--L-----------|--1-----------------------|--------0-----1-----3-----|
--1--1--L--1--------------|-----2--L--2--L--------0--|--2-----2-----0-----2-----|
--------------0-----------|-----3--L--------0--------|-----------2--------------|
--------2--------2--------|--------3-----------------|--0--0-----------0--0-----|
--0-----------------0-----|--1-----------3-----3-----|-----------------------0--|


                                                                    ^            
  E  E  E  E  E  E  E  E     E  E  E  E  E  E  E  E     E  E  E  E  E  E  E  E   
--------------------------|-----------------0--L-----|--1-----0-----1--3--------|
--4--4--L--4--L-----------|-----3--L--1--3-----------|--1-----1-----0-----------|
--2--2--L--2--L-----------|-----1--L-----------------|-----2-----2--0--------0--|
--------------1--1--------|-----------------------0--|--------------------0-----|
--------3-----------0--0--|--------2-----------2-----|--------------------------|
--2-----------------------|--0-----------0-----------|--1-----------3-----------|


  E  E  E  E  E  E  E  E     E  E  E  E  E  E  E  E     E  E  E  E  E  E  E  E   
--0-----0--------0--------|--1-----1-----0-----------|--------------------------|
--1-----1-----3-----------|--0-----0-----0--3--------|--1--1--L-----1--3--L--1--|
-----0--------0--------0--|-----1-----1-----------1--|--2--------2--2-----------|
-----------2--------2-----|--------------------0-----|--------2-----------0-----|
--3-----------3-----------|--------------2-----------|--0-----------------------|
--------------------------|--0-----------------------|--------------3-----------|


  E  E  E  E  E  E  E  E     E  E  E  E  E  E  E  E     E  E  E  E  E  E  E  E   
--------------------------|--------------------------|--------------------------|
--4--3--L--1--L-----------|--1-----1-----0--1--L-----|--3-----3-----1--3--L-----|
--------------------0-----|--2-----2-----------------|--0-----0-----0-----------|
--------2-----------2-----|-----3-----3-----------3--|-----0-----0-----------0--|
--------------------------|--------------------3-----|--2-----------------2-----|
--3-----------3--3-----3--|--1-----1-----------------|--------------3-----------|


  E  E  E  E  E  E  E  E     E  E  E  E  E  E  E   E   
-----0-----0--1-----------|-----4--5--7--8--7--8--10--|
--------3--------0--1--3--|--5-----0-----0-----0------|
--------0-----------------|---------------------------|
--------------------------|--6------------------------|
--3-----------2-----------|---------------------------|
--------------------------|--0-----------0------------|


  |--3--|  |--3--|  |--3--|  |--3--|     |--3--|  |--3--|  |--3--|  |--3--|   
  E  E  E  E  E  E  E  E  E  E  E  E     E  E  E  E  E  E  E  E  E  E  E  E   
-----------0--------------0--------0--|-----------0--------------------------|
--------1-----1--------1--------1-----|--------3-----3-----------3--------0--|
-----2-----------2--------------------|-----1-----------1-----1--------1-----|
--------------------------------------|-----------------------------0--------|
--0-----------------2--------3--------|--2-----------------3-----------------|
--------------------------------------|--------------------------------------|


  |--3--|  |--3--|  |--3--|  |--3--|     |--3--|  |--3--|             
  E  E  E  E  E  E  E  E  E  E  E  E     E  E  E  E  E  E  Q    Q     
-----------0--------------------------|-----------0------------------|
--------2-----2-----------2--------2--|--------3----------------3----|
-----2-----------2-----2--------2-----|-----2-------------------2----|
--------------------0--------2--------|--0---------------------------|
--4-----------------------------------|--------------3--2--0---------|
--------------------------------------|--------------------2---------|


  ^                      ^                      ^                    
  Q    Q    Q    Q       Q    Q    Q    Q       Q    Q    Q    Q     
----------------------|----------------------|----------------------|
------------0----1----|--1-------------------|----------------------|
--2---------2---------|--0---------0---------|--0-------------------|
--3-------------------|--2---------2---------|--1---------1---------|
--3----3--------------|-------3---------3----|--3--------------3----|
--1-------------------|--0-------------------|-------3--------------|


                         ^                                           
  Q    Q    Q    Q       Q    Q    Q    Q       Q    Q    Q    Q     
----------------------|----------------------|--0-------------------|
----------------------|------------3---------|-------3---------3----|
----------------------|-------2---------2----|------------2---------|
------------3----1----|--0-------------------|--L-------------------|
-------3--------------|--0-------------------|--L-------------------|
--3-------------------|--2-------------------|--L-------------------|


                         ^                                                   
  Q    Q    Q    Q       S  S  E  Q    Q    Q         Q    Q    E  E  E  E   
--3--------------3----|--2h-3p-2------------------||------------------------|
-------3--------------|--3-----L--3---------1-----||-------1----0--1--------|
------------2---------|--2-----L-------2----2----*||-------2----2-----------|
--0-------------------|--0-----L------------1----*||---------------------2--|
----------------------|---------------------0-----||--0----0----------0-----|
----------------------|---------------------------||------------------------|


  Q    Q    E  E  E  E     Q    Q    E  E  E  E     Q    Q    E  E  Q     
------------------------|------------------------|-----------------------|
--1----1----0--1-----1--|-------1----0--1--------|--1----1----3--1-------|
--2----2----2--------2--|-------2----2-----------|--2----2----4--2-------|
------------------------|---------------------2--|-----------------------|
-------0----------0-----|--0----0----------0-----|-------0----------0----|
------------------------|------------------------|-----------------------|


  W                  
--5----------------||
--5----------------||
--5----------------||
--4----------------||
--L----------------||
-------------------||




Legend:
-------
W - whole
Q - quarter
E - 8th
S - 16th
|-n-|  - n-tuplets
L - tied note
h - hammer on
p - pull off
^ - brush up
Login or Register to remove this ad.

7 comments on Theme of the Tantalus

Awesome^^

5

Awesome^^

Great work.

5

Great work.

This is a pretty good tab. I

This is a pretty good tab. I Enjoyed it

Very good job, thanks for it

Very good job, thanks for it

My god this is a kickass

5

My god this is a kickass arrangement. Nice job.

Epic tab :D

5

Epic tab :D

Brings back memories... Thank

5

Brings back memories... Thank you for making this arrangement!