Ads

Tetra Master (Final Fantasy IX) Guitar Tab

Submitted: Jun 04, 2013 by Tortoise (Last updated: Jun 05, 2013)

5
Average: 5 (5 votes)
Download | Listen
Game: Final Fantasy IX
Composer(s): Nobuo Uematsu
Style: Alternate picking, Arrangement, Fingerstyle
Series: Final Fantasy

This song is also called Quad Mist

AutoScroll: Slow | Medium | Fast
Final Fantasy IX
Tetra Master - written by Nobuo Uematsu
Arranged & tabbed by Michael Achilles (Tortoise)
5-30-13

Standard Tuning
12/8 Timing (4 triplets per measure)


 1                  2                   3                   4
     Q E Q E Q E Q E   Q E Q E Q E Q S S   Q E Q E Q E E E E   Q E Q E Q E Q E  
E||--3---3---3---3---|-2---2---2---2-----|-1---1---1---1-----|-1---1---1---1---|
B||o-5---5---5---5---|-4---4---4---4-----|-3---3---3---3-----|-3---3---3---3---|
G||----5---5---5-----|---5---5---5-------|---5---5---5-------|---4---4---4-----|
D||------------------|-------------------|-0-----------------|---------------0-|
A||o-3-----------2-0-|---------------2/3-|---------------0---|-------0---2-----|
E||------------------|-------------------|-----------------4-|-3---------------|

5                 6                   7                 8
   Q E Q E Q E Q E   Q E Q E Q E Q S S   Q E Q E Q E Q E   Q E Q E Q E Q E
E|-3---3---3---3---|-2---2---2---2-----|-1---1---3---3---|-1---1---3---3---|
B|-5---5---5---5---|-4---4---4---4-----|-3---3---5---5---|-3---3---3---3---|
G|---5---5---5-----|---5---5---5-------|---2-------4-----|---2-------4-----|
D|-----------------|-------------------|-0-----0-2-----2-|-3-----3-5-----5-|
A|-3-----------2-0-|---------------2/3-|-----------------|-----------------|
E|-----------------|-------------------|-----------------|-----------------|

9                 10                11                12
   Q E Q E Q E Q E   Q E Q E Q E Q E   Q E Q E Q E Q E   Q E Q E Q E Q E
E|-5---5---5---5---|-5---5---5-------|-5---5---5---5---|-5---5---5-------|
B|-5---5---5---5---|-7---7---7-------|-5---5---5---5---|-7---7---7-------|
G|---5---5---5-----|---7---7---------|---5---5---5-----|---7---7---------|
D|-----------------|-----------------|-----------------|-----------------|
A|---------------5-|-----------------|---------------7-|---5-------------|
E|-5---------7h8---|-----------8-7-5-|-----------7h8---|-----------8-7-5-|

13                14                15                16
   Q E Q E Q E Q E   Q E Q E Q E Q E   Q E Q E Q E Q E   Q E Q E Q E Q E
E|-5---5---5---5---|-5---5---5---5---|-5---5---5---5---|-3---3---1---1----||
B|-5---5---5---5---|-7---7---7---7---|-----6-------7---|-5---2---3---3---o||
G|---5---5---5-----|---7---7---7---7-|---5---5---5---5-|---5---2---2---4--||
D|-----------------|-----------------|-3-------4-------|-5-------0--------||
A|---------------5-|-----------------|-----------------|-----0-----------o||
E|-----------7h8---|-----------------|-----------------|-------------3----||



Note Lengths: Q - Quarter; E - 8th; S - 16th;

Tips:
Measure 1 - leave pinky on the B string
Measure 2-4 - Play Bass notes with middle finger
Measure 6 - Use Ring finger to play bass notes
Measure 7 - Start with Middle finger on High E string
Login or Register to remove this ad.

2 comments on Tetra Master

Vury catchy tune!

5

Vury catchy tune!

I don't know how possible

5

I don't know how possible this is going to be at anywhere near tempo, especially that last measure (hoooly crap) but. It's pretty great in general and really fun. :)