Ads

Terra (Final Fantasy IX) Guitar Tab

Submitted: Mar 12, 2013 by thedstring (Last updated: Mar 12, 2013)

5
Average: 5 (5 votes)
Download | Listen
Game: Final Fantasy IX
Composer(s): Nobuo Uematsu
Style: Arrangement, Fingerstyle
Series: Final Fantasy

AutoScroll: Slow | Medium | Fast
Terra
Final Fantasy IX

Composed by Nobuo Uematsu
Arranged by Nate Brooks (thedstring)

standard tuning
no capo


(the g after some notes means "ghost" note, please play them quietly)


    VII______    V_________________________________________
E |--8-------------------|--5-------------------|----------------------|
B |-----10----------5----|-----5-----------5----|--6-------------------|
G |--------9-----7-------|--5-----7--5--7-------|-----7--------0--2----|
D |--7-----------5-------|----------------------|--------7-------------|
A |----------------------|--8--------7----------|--5-----------3-------|
E |----------------------|----------------------|----------------------|

                         V__________________________________________
--0-------------------|--------------5-------|--------------5g------|
-----1-----3----------|--------5-----5-------|--------5g----5g------|
--0-----0-----3-------|--------5-----5-------|--------5g----5g------|
-----------3-----3----|--------7-----7-------|--------7g----7g------|
--1-------------------|-----7-----7-----7----|-----7-----7-----7----|
-----------1----------|--5-------------------|--5-------------------|

  V________________________________________
--------------5-------|--------------5g------|
--------5-----5-------|--------5g----5g------|
--------5-----5-------|--------5g----5g------|
--------7-----7-------|--------7g----7g------|
-----7-----7-----7----|-----7-----7-----7----|
--5-------------------|--5-------------------|


----------------------|--0-----------2--3----|--2-----0--------0----|
--------0-----1--3----|--------1-------------|-----------1--3-------|
--2-------------------|-----------2----------|--------2-----2-------|
-----2-----2----------|-----2----------------|-----2-----------2----|
--0-------------------|--0-------------------|--0-------------------|
----------------------|----------------------|----------------------|

                         V________________________________________
----------------------|--------------5-------|--------------5g------|
--1-----0-------------|--------5-----5-------|--------5g----5g------|
--------2-----2--0----|--------5-----5-------|--------5g----5g------|
-----2-----2----------|--7-----7-----7-------|--------7g----7g------|
--0-------------------|-----7-----7-----7----|-----7-----7-----7----|
----------------------|--5-------------------|--5-------------------|

  V________________________________________
--------------5-------|--------------5g------|
--------5-----5-------|--------5g----5g------|
--------5-----5-------|--------5g----5g------|
--------7-----7-------|--------7g----7g------|
-----7-----7-----7----|-----7-----7-----7----|
--5-------------------|--5-------------------|


----------------------|--0-----------2--3----|--2-----0-----0-------|
--------0-----1--3----|--------1-------------|-----------1-----4----|
--2-------------------|-----------2----------|--------2-----2-------|
-----2-----2----------|-----2----------------|-----2-----------2----|
--0-------------------|--0-------------------|--0-------------------|
----------------------|----------------------|----------------------|

                         V________________________________________
--0-------------------|--------------5-------|--------------5g------|
-----------1----------|--------5-----5-------|--------5g----5g------|
--------2-----2-------|--------5-----5-------|--------5g----5g------|
-----2-----------2----|--------7-----7-------|--------7g----7g------|
--0-------------------|-----7-----7-----7----|-----7-----7-----7----|
----------------------|--5-------------------|--5-------------------|

  V________________________________________
--------------5-------|--------------5g------|
--------5-----5-------|--------5g----5g------|
--------5-----5-------|--------5g----5g------|
--------7-----7-------|--------7g----7g------|
-----7-----7-----7----|-----7-----7-----7----|
--5-------------------|--5-------------------|


----------------------|--0-----------2--3----|--2-----0--------0----|
--------0-----1--3----|--------1-------------|-----------1--3-------|
--2-------------------|-----------2----------|--------2-----2-------|
-----2-----2----------|-----2----------------|-----2-----------2----|
--0-------------------|--0-------------------|--0-------------------|
----------------------|----------------------|----------------------|

                         V________________________________________
----------------------|--------------5-------|--------------5g------|
--1-----0-------------|--------5-----5-------|--------5g----5g------|
--------2-----2--0----|--------5-----5-------|--------5g----5g------|
-----2-----2----------|--7-----7-----7-------|--------7g----7g------|
--0-------------------|-----7-----7-----7----|-----7-----7-----7----|
----------------------|--5-------------------|--5-------------------|

  V________________________________________   
--------------5-------|--------------5g------|
--------5-----5-------|--------5g----5g------|
--------5-----5-------|--------5g----5g------|
--------7-----7-------|--------7g----7g------|
-----7-----7-----7----|-----7-----7-----7----|
--5-------------------|--5-------------------|

  I_________________________________
----------------------|----------------------|--------------0-------|
--1-----------1-------|--3--------1----------|----------------------|
-----------2----------|--------2-----4--2----|--0-----0-------------|
--------3-----3-------|----------------------|-----2-----2-----2----|
-----3-----------3----|-----3----------------|----------------------|
--1-------------------|--1-------------------|--0-------------------|


----------------------|----------------------|----------------------|
--0-----------3-------|--1-----1-----0-------|--------0-------------|
--------0-------------|-----2-----2-----2----|--2-----------0-------|
-----2-----2-----2----|--0-------------------|-----2-----2-----2----|
----------------------|----------------------|----------------------|
--0-------------------|----------------------|--0-------------------|

  V_______________________________________________________________
--------------5-------|--------------5g------|--------------5-------|
--------5-----5-------|--------5g----5g------|--------5-----5-------|
--------5-----5-------|--------5g----5g------|--------5-----5-------|
--7-----7-----7-------|--------7g----7g------|--------7-----7-------|
-----7-----7-----7----|-----7-----7-----7----|-----7-----7-----7----|
--5-------------------|--5-------------------|--5-------------------|

  V_________________
--------------5g------|
--------5g----5g------|
--------5g----5g------|
--------7g----7g------|
-----7-----7-----7----|
--5-------------------|

  V_________________                          
--5--------------5----|--3-----2--0----------|--0--------0-----2----|
-----------5----------|-----------------3----|-----1--3-------------|
-----------5----------|-----------0----------|-----2--------2-------|
--------7-----7-------|--------0-----0-------|----------------------|
-----7-----------7----|-----2----------------|--0--------------0----|
--5-------------------|--3--------------3----|----------------------|

                         V_________________
--3--------3----------|--5--------------5----|--3-----2--0----------|
----------------------|-----------5----------|-----------------3----|
-----------0----------|-----------5----------|-----------0----------|
--------0-----0-------|--------7-----7-------|--------0-----0-------|
-----2-----------2----|-----7-----------7----|-----2----------------|
--3-------------------|--5-------------------|--3--------------3----|

  I___                                        
--------0-------------|----------------------|
--1--------0----------|-----------1----------|
--------2-----2--0----|--2-----2-----2-------|
-----3-----0-----0----|-----2-----------2----|
----------------------|--0-------------------|
--1--------3----------|----------------------|

  V_________________                          
--5--------------5----|--3-----2--0----------|--0--------0-----2----|
-----------5----------|-----------------3----|-----1--3-------------|
-----------5----------|-----------0----------|-----2--------2-------|
--------7-----7-------|--------0-----0-------|----------------------|
-----7-----------7----|-----2----------------|--0--------------0----|
--5-------------------|--3--------------3----|----------------------|

                         V_________________
--3--------3----------|--5--------------5----|--3-----2--0----------|
----------------------|-----------5----------|-----------------3----|
-----------0----------|-----------5----------|-----------0----------|
--------0-----0-------|--------7-----7-------|--------0-----0-------|
-----2-----------2----|-----7-----------7----|-----2----------------|
--3-------------------|--5-------------------|--3--------------3----|

                                                V_________________
--------0-------------|----------------------|--------------5-------|
--1--------0----------|-----------1----------|--------5-----5-------|
--------2-----2--0----|--2-----2-----2-------|--------5-----5-------|
-----3-----0-----0----|-----2-----------2----|--7-----7-----7-------|
----------------------|--0-------------------|-----7-----7-----7----|
--1--------3----------|----------------------|--5-------------------|

  V__________________________________________________________
--------------5g------|------------5------|--------------------||
--------5g----5g------|-------5----5------|-------5g----5g-----||
--------5g----5g------|-------5----5------|-------5g----5g-----||
--------7g----7g------|-------7----7------|-------7g----7g-----||
-----7-----7-----7----|-------------------|--------------------||
--5-------------------|--5----------------|--5-----------------||
Login or Register to remove this ad.

6 comments on Terra

I would say this song, played

I would say this song, played smoothly, is a 7/10 difficulty rating. Mostly in the final 4th.

This makes me want to learn

This makes me want to learn the song and see how long it takes me to learn, and compare it to other stuff with regards to difficulty. :D So thank you!

(I like quantifying things for fun sometimes)

The only downside is I don't really know the song that well to begin with, so I'll have to break out the FFIX soundtrack.

http://www.youtube.com/watch?

I change my mind, 6/10

5

I change my mind, 6/10 difficulty

I didn't actually end up

5

I didn't actually end up doing it in 2013. Now I've done it.

Just as with bran bal...I thought I didn't give a damn about Terra, and this absolutely lovely arrangement has changed my mind! (maybe even more so than with bran bal) So thank you!

Here's a recording of me

5

Here's a recording of me playing this song

https://www.youtube.com/watch?v=tESHtz1ddBA

(and I feel silly that I rated my own song 3 years ago, but I can't take it back now!!)