Song of Memory (Final Fantasy IX) Guitar Tab

Submitted: Sep 19, 2012 by Chriscendo

5
Average: 5 (5 votes)
Download | Listen
Game: Final Fantasy IX
Composer(s): Nobuo Uematsu
Style: Arrangement, Fingerstyle
Series: Final Fantasy

AutoScroll: Slow | Medium | Fast
                                Song of Memory                                  


                                                     Arranged by Chris MacKinnon
Guitar



     E  E  E  E  E   E  E   E     E  E  E  E  E   E  E  E   
E||----------------------------|---------------------------|
B||--------------0-------------|--------------3------------|
G||-----------0--2p--0---------|-----------0--5p--0--2-----|
D||--------0------------4------|--------2------------2-----|
A||-----2---------------5p--2--|-----3------------------3--|
E||--3-------------------------|--3------------------------|


                                           ^    ^                             
  E  E  E  E  E   E  E   E     E  E  E  E  Q    Q       H        E  E  E  E   
----------------------------|------------------------|-----------------------|
--------------0-------------|--------------3---------|--------------0--1-----|
-----------0--2p--0---------|-----------0--3----5----|-----------2-----------|
--------0------------4------|--------1-----1----4----|--------------------4--|
-----2---------------5p--2--|-----3-------------6----|-----------3--2--0-----|
--3-------------------------|--3---------------------|--------------------2--|


                                                                 ^            
  E  E  E  E  Q.     S S    E  E  E  E  Q.     E     E  E  E  E  E  E  E  E   
-------------------------|-----------0------------|--0-----------------------|
--0-----0--3-----------0-|--1--0--1-----0---------|-----3--3--1--1--0-----0--|
-----2--------2------2---|---------------------0--|--------4-----1-----2-----|
--0-----------4----------|--2---------------------|--------------2-----0-----|
--2-----------5----------|--0-----------2---------|--3-----------2-----2-----|
--3-----------3----------|--------------3---------|--------------------------|


                                                                          ^     
  E  E  E   E  Q.     E     E  E  E  E  E  E  E  S S    E  E  E   E  Q    Q     
-------------------------|---------------------------|---------------0---------|
--1----------------------|--0-----0--3-------------0-|--1--0--1--/3-------3----|
--------0h--2------------|--0--2--------2--------2---|--2-----0------3----3----|
-----2--2------4------0--|--------0--------0--4------|-----2-----/4--3----0----|
--0------------3---------|-----2---------------------|--0----------------------|
---------------5---------|--3-----------3------------|-------------------------|


  E  E  E  E  H           E  E  E  E  E  E  E  E       E  E  E  E  E  E  E  E   
-----------------------|--------------------------||---------------------------|
--1--0--0--------------|--3-----------------------||------------0--------------|
--0-----0--2--2--------|--4--5--5--4--4-----0-----||*--0-----2-----------------|
--2-----------4--------|--5--L--5-----L--7--0--4--||*--------0-----4--------4--|
--------2--L--0--------|--------5-----L-----3--L--||------2--------2--4--5-----|
-----------------------|--------------------------||---3-----------------------|


  E  E  E  E  Q    E  E     E  E  E  E  E  E  E  E     S S E  Q    E  E  E  E   
-------------------------|--------------------------|--------------------------|
-------------------------|--1--0--0-----------------|--------------------------|
-----0-------------------|-----------2--2-----0-----|----0-2--L----------------|
--4-----4--0--2-------2--|--------2--------0--2--2--|--4--------------2-----4--|
--3-----------3----3--2--|--0--3--------------------|--5-----------3-----5-----|
-------------------------|--------------3-----------|--------------------------|


                                                       ^                       
  E  E  E  E  E  E  E  E     E  E  E  E  Q    E  E     E  E  E  E  Q    E  E   
--------------------------|-------------------------|-------------------------|
-----------0--3-----0-----|-------------------------|--1--0--0----------------|
--0-----2-----------------|-------------------------|--2--------2--2-------0--|
--------0--------------4--|--2----------------------|--2--------L--L----2-----|
-----2--------2--4--5-----|--3--5--3--2--3----3--2--|--0--------L--L----L--L--|
--3-----------------------|-------------------------|-------------------------|


  ^                                                                            
  E  E  E  E  E  E  E  E     E  E  E  E  E  E  E  E     Q.     E  E  E  E  E   
--------------------------|--------------------------|------------------------|
--3--1--1--0--0-----0--1--|--3-----------------------|--L------0--1--0--------|
--2-----------L--2--------|-----0--2--5--2--0-----0--|---------------------2--|
--0-----------L--L--L-----|--0-----------------2-----|--4---------------4-----|
--------------------------|--------------------------|--0---------------L-----|
--------------------------|--------------------------|------------------------|


                                                          ^    
  E  E  E  E  E  E  E  E       E  E  E  E  E  E  E  E     E    
---------------------------||--------------------------|-----||
--------------------0------||--------------------0--1--|--3--||
--2--0--0-----0--2--------*||--2--0--0-----0--2--------|--0--||
--------2--4--------0--4--*||--------2--4--------0-----|--0--||
-----3-----5--3--0-----5---||-----3-----5--3--0-----3--|--2--||
--3------------------------||--3-----------------------|--3--||
Login or Register to remove this ad.

2 comments on Song of Memory

Thank you :)

5

Thank you :)

I look forward to more from you!

these are some solid

5

these are some solid arrangements you've got :D