Ads

Sky Above Alexandria (Final Fantasy IX) Guitar Tab

Submitted: Jul 06, 2013 by Colin_spade

5
Average: 5 (3 votes)
Download | Listen
Game: Final Fantasy IX
Composer(s): Nobuo Uematsu
Style: Arrangement, Fingerstyle
Series: Final Fantasy

AutoScroll: Slow | Medium | Fast
Sky Above Alexandria                               


                                                                   Nobuo Uematsu
Track 1



                                               ^            ^            
     H        H           H        H           Q    S S S S Q    E  S S  
E||--2--------1--------|--------------------|---------------------------|
B||--------------------|--2-----------------|--2------------4----2--4---|
G||--------------------|-----------3--------|--2--------1-2-4----4--4---|
D||--------------------|--------------------|--2----2-4-----4----4--2-1-|
A||--------------------|--------------------|--0------------0-----------|
E||--------------------|--------------------|---------------------------|


  ^         ^              ^                                          
  Q.     E  E  E  E  E     Q    Q    Q    Q       H        Q    Q     
--0---------2-----0--2--|--4-------------------|--2--------0---------|
--0---------0-----0--0--|--6---------4---------|----------------3----|
--1---------0-----0--0--|--6----6--------------|---------------------|
--2---------0-----------|--6--------------6----|--0------------------|
---------2-----4--2--0--|--4-------------------|--0--------3---------|
--4---------3-----------|--4-------------------|-----------3---------|


                               |--3--|               
  Q    E  E  Q    Q       Q    E  E  E  E  E  E  E   
-----------------------|--0----0--0--0--------------|
--1----0--3--1---------|--0----0--0--0--4--4--4--4--|
------------------2----|--2----2--2--2--4--4--4--4--|
--2----------0---------|----------------------------|
--0----------3---------|--2----2--2--2--0--0--0--0--|
-------------2---------|----------------------------|


  S S S S S S S S S S S S S S S S    S S S S S S S S S S S S S S S S  
----------0-------2---------------|------------------4-------0-------|
--0-----------------------0-------|--0-------------------------------|
----1---1---1---1-----------------|----------------------------------|
--2---------------1-4---4---4---4-|----2---2---2---2---2---2---2---2-|
------2-------2-------2---6---2---|--4-------4-------2-------2-------|
--0-------0-----------------------|------4-------4-------4-------4---|


  ^          ^            ^                  
  Q    E  E  Q    Q       W                  
--0-------1--0---------|--4----------------||
--1----3--1--1----1----|--5----------------||
--0----5-----2----2----|--4----------------||
----------2--2----2----|-------------------||
--3----3-----0----0----|-------------------||
----------0------------|--0----------------||




Duration Legend
---------------
W - whole
H - half
Q - quarter
E - 8th
S - 16th
T - 32nd
X - 64th
. - note dotted
|-n-|  - n-tuplets


Tablature Legend
----------------
L - tied note
x - dead note
g - grace note
(n) - ghost note
> - accentuded note
NH - natural harmonic
AH - artificial harmonic
TH - tapped harmonic
SH - semi harmonic
PH - pitch harmonic
h - hammer on
p - pull off
b - bend
br - bendRelease
pb - preBend
pbr - preBendRelease
brb - bendReleaseBend
\n/ - tremolo bar dip
\n - tremolo bar dive
-/n - tremolo bar Release up
/n\ - tremolo bar inverted dip
/n - tremolo bar return
-\n - tremolo bar Release down
S - shift slide
s - legato slide
/ -  slide into from below or out of upwards
\ -  slide into from above or out of downwards
~ - vibrato
W - wide vibrato
tr - trill
TP - tremolo picking
T - tapping
S - slap
P - pop
< - fade in
^ - brush up
v - brush down
Login or Register to remove this ad.

1 comment on Sky Above Alexandria

comment field is required

5

comment field is required