Ads

Secret Library Daguerreo (Final Fantasy IX) Guitar Tab

Submitted: Jan 28, 2011 by glcm (Last updated: Jan 29, 2011)

5
Average: 5 (3 votes)
Download | Listen
Game: Final Fantasy IX
Composer(s): Nobuo Uematsu
Style: Arrangement, Fingerstyle, Natural harmonics
Series: Final Fantasy

AutoScroll: Slow | Medium | Fast
Secret Library Daguerreo
Final Fantasy IX
Composed by: Nobuo Uematsu
Tabbed by: glcm

Intro

e-----3--------5--3--0--1-------------------3--------5--3--0--1-------
B--5-----3--5--------------3--5----------5-----3--5--------------3--1-
G--0-----0--0--5--4--0--2--0--0----------0-----0--5-----4--4-----4--0-  x2
D--------------3--0-------------------------------------2--3-----0----
A--3-----2--3--------3-----2--3----------3-----2--0-----------------3-
E---------------------------------------------------------------------


Melody 1

e------8--8-----------------------------------8--8------------------0-------
B-----8----8-8--10--8--8---------------------8----8---11-10------------3--1-
G----9------9-------0-----7--9--10--9-------9------9---------7--10--0--0--0-
D--10-------------------------------------10--------------------------------
A---------------8----------------------------------------8----------------3-
E------8----------------------------8---------8---------------------3--3----

e------8--8-----------------------------------8--8------------------------------
B-----8----8-8--10--8--8---------------------8------8-----11--10-----6--5--3--1-
G----9------9-------0-----7--9--10--9-------9----------9----------7-----4--4--0-
D--10-------------------------------------10----------------------5--7----------
A---------------8--------------------------------------7------8---------------3-
E------8----------------------------8---------8--10---------------------3--3----


Melody 2
                                                                             NH
e-----3--1--0--------------3-----1--0----------3--1--0--------0---------------3-
B--3-----------1--3--0--3-------------------3-----------1--3-----3--3-5-6-------
G--0--------0-----------0-----------0-------0--------0-----------0--0-0-0-------
D-------------------------------------------------------------------------------
A--2--------3-----------2-----------3-------2--------3-----------2--2-3-5-------
E-------------------------------------------------------------------------------

                                                     
e-----3--1--0--------------3-----1--0----------5--3-----------------7--5-----5--7-
B--3-----------1--3--0--3-------------------5--------6-----5--6--7--------8-------
G--0--------0-----------0-----------0-------0-----------7-------------------------
D---------------------------------------------------------------------------------
A--2--------3-----------2-----------3-------4--------5-----------6--------7--6--5-
E---------------------------------------------------------------------------------


End with intro.
Login or Register to remove this ad.

6 comments on Secret Library Daguerreo

Great job

Great job :3
e-----3--1--0--------------
B--3-----------1--3--0--3--
G--0--------0-----------0---
D---------------------------
A--2--------3-----------2---
E-------------------------
should that be this though?
e-----3--1--0--------0-----
B--3-----------1--3-----3--
G--0--------0-----------0---
D---------------------------
A--2--------3-----------2---
E-------------------------
besides that, its perfect.

Yea you're right. Sorry about

Yea you're right. Sorry about the mistake. Thanks for pointing that out. :)

Is there any chance you could

Is there any chance you could post a version with the timings/tempo?

Post on youtube times / tempo

Hi I do love this song, If I may.. give me.. a couple of days my schedule is hectic.. I can post time and tempo or basically how it should be played I can even do a like learning session if needed. Of course I would label the maker of this tab for the credit. Let me know! ^.^

Actually; I believe the

Actually; I believe the original tab was correct in its relationship between the notes... based on that I made a GP Pro tab which I believe to be right. Still, if you could confirm it, all the better. :P

basstone.

Intro correction:

0-43-- should be --355- then instead of 1----- right afterto --356
then at end of intro one before last touch the bass tone has to be 5 in -340-- to -345-- :)

source: im a composer with perfect ear and the music playing ;)