Secret Library - Daguerreo (Final Fantasy IX) Guitar Tab

Submitted: May 31, 2010 by Daugreano

5
Average: 5 (1 vote)
Download | Listen
Game: Final Fantasy IX
Composer(s): Nobuo Uematsu
Style: Alternate picking, Transcription
Series: Final Fantasy

AutoScroll: Slow | Medium | Fast
Song: Secret Library - Daguerreo
Game: Final Fantasy IX
Composer: Nobuo Uematsu
Tabbed by: Daugreano

You'll Have to look at the tux guitar file that is in the zip...
just play along with that and you'll get the rhythm, unless you know the song.
 
Guitar:

E|-------------------------|--------|-------------------------|----------------------|
B|-13------13--------------|--------|-------------------------|----------------------|
G|-------------12------12--|-14-----|-12------12--------------|------------------12--|
D|-----------------14------|--------|-------------12--14--15--|-14-----------14------|
A|-------------------------|--------|-------------------------|----------15----------|
E|-------------------------|--------|-------------------------|----------------------|


E|-------------------------|----------------|------------|----------------------|-------------------------|
B|-13------13--------------|----------------|------------|----------------------|-13------13--------------|
G|-------------12------15--|-14-------------|------------|------------------12--|-------------12------12--|
D|-----------------14------|------12---15---|-14----12---|--------------14------|-----------------14------|
A|-------------------------|----------------|------------|-15-------15----------|-------------------------|
E|-------------------------|----------------|------------|----------------------|-------------------------|


E|------------|-------------------------|----------------------|-------------------------|
B|------------|-------------------------|----------------------|-13------13--------------|
G|-14---------|-12------12--------------|------------------12--|-------------12------15--|
D|------------|-------------12--14--15--|-14-----------14------|-----------------14------|
A|------------|-------------------------|----------15----------|-------------------------|
E|------------|-------------------------|----------------------|-------------------------|


E|----------------|------------|--------|----------------|----------------|----------------|
B|----------------|------------|--------|----------------|----------------|----------------|
G|-14-------------|------------|--------|------12--------|------14---12---|----------------|
D|------12---15---|-14----12---|--------|-14--------12---|-14-------------|-14---15---12---|
A|----------------|------------|-15-----|----------------|----------------|----------------|
E|----------------|------------|--------|----------------|----------------|----------------|


E|------------|----------------|----------------|----------------|----------------------|
B|------------|----------------|----------------|----------------|----------------------|
G|------------|------12--------|------14---12---|----------------|------------------12--|
D|-14---------|-14--------12---|-14-------------|-14---15---12---|--------------14------|
A|------------|----------------|----------------|----------------|-15-------15----------|
E|------------|----------------|----------------|----------------|----------------------|


E|-------------------------|--------|-------------------------|----------------------|
B|-13------13--------------|--------|-------------------------|----------------------|
G|-------------12------12--|-14-----|-12------12--------------|------------------12--|
D|-----------------14------|--------|-------------12--14--15--|-14-----------14------|
A|-------------------------|--------|-------------------------|----------15----------|
E|-------------------------|--------|-------------------------|----------------------|


E|-------------------------|----------------|------------|----------------------|-------------------------|
B|-13------13--------------|----------------|------------|----------------------|-13------13--------------|
G|-------------12------15--|-14-------------|------------|------------------12--|-------------12------12--|
D|-----------------14------|------12---15---|-14----12---|--------------14------|-----------------14------|
A|-------------------------|----------------|------------|-15-------15----------|-------------------------|
E|-------------------------|----------------|------------|----------------------|-------------------------|


E|------------|-------------------------|----------------------|-------------------------|
B|------------|-------------------------|----------------------|-13------13--------------|
G|-14---------|-12------12--------------|------------------12--|-------------12------15--|
D|------------|-------------12--14--15--|-14-----------14------|-----------------14------|
A|------------|-------------------------|----------15----------|-------------------------|
E|------------|-------------------------|----------------------|-------------------------|


E|----------------|------------|--------|----------------|-------------------|----------------|
B|----------------|------------|--------|----------------|-------------------|----------------|
G|-14-------------|------------|--------|------12--------|-------------------|------12--------|
D|------12---15---|-14----12---|--------|-12--------15---|-14-------12--14---|-12---------15--|
A|----------------|------------|-15-----|----------------|------15-----------|----------------|
E|----------------|------------|--------|----------------|-------------------|----------------|


E|--------|----------------|-------------------|-------------------------|----------------|
B|--------|----------------|-------------------|-------------------------|----------------|
G|--------|------12--------|-------------------|-------------------------|------12--------|
D|-14-----|-12--------15---|-14-------12--14---|-12------12--14--15------|----------------|
A|--------|----------------|------15-----------|-------------------------|----------------|
E|--------|----------------|-------------------|-------------------------|----------------|


E|----------------|-------------------|----------------|------------|----------------|
B|----------------|-------------------|----------------|------------|----------------|
G|------12--------|-------------------|------12--------|------------|------14---12---|
D|-12--------15---|-14-------12--14---|-12---------15--|-14---------|-14-------------|
A|----------------|------15-----------|----------------|------------|----------------|
E|----------------|-------------------|----------------|------------|----------------|


E|-------------------|----------------|-----------------------|
B|-------------------|------12--------|-----------------12----|
G|-------------------|-----------14---|-12------14------------|
D|-15---12--14--15---|-16-------------|-----------------------|
A|-------------------|----------------|-----------------------|
E|-------------------|----------------|-----------------------|
Login or Register to remove this ad.