Rose of May (Final Fantasy IX) Guitar Tab

Submitted: Mar 02, 2014 by TheDoomOfAllFires (Last updated: Mar 02, 2014)

5
Average: 5 (6 votes)
Download | Listen
Game: Final Fantasy IX
Composer(s): Nobuo Uematsu
Style: Arrangement, Fingerstyle
Series: Final Fantasy

AutoScroll: Slow | Medium | Fast
"Rose of May" - Final Fantasy IX
Composer : Nobuo Uematsu
Arrangement : TheDoomOfAllFires
BPM : 95
Tuning : One step Down DGCFAD


              ^                                             ^           
D |-----------0--2h-3----|--2-------------------|--------------0-------|
A |-----------0----------|----------------------|--3--------3-----1----|
F |-----------0----------|--2--------------2----|-----------0----------|
C |----------------------|--0-----0--2h-4-------|----------------------|
G |----------------------|-----0----------------|-----------3----------|
D |----------------------|----------------------|----------------------|

  ^                               ^                                  
--0-------------------|--0--------0--2h-3----|--2-------------------|
--0--------------0----|-----------0----------|----------------------|
--0-----------0-------|-----------0----------|--2--------------2----|
--2-----2h-4----------|-----------2----------|--0-----0--2h-4-------|
-----2----------------|----------------------|-----0----------------|
----------------------|----------------------|----------------------|

           ^                                    ^        ^           
--------------0-------|--0-------------------|--0--------0--2h-3----|
--3--------3-----1----|--0--------------0----|--0--------0----------|
--2--------0-----0----|--------------0-------|--0--------0----------|
--4-------------------|--------2--4----------|--2-------------------|
-----------3----------|-----2----------------|----------------------|
----------------------|--0-------------------|----------------------|

                                                                     
--5-----5--7--5--3----|--2-----2--0--2--3----|--------------7s-5----|
--3--------0----------|-----------0----------|--1-----1--0----------|
--2--------0----------|--2-----2--0----------|--0-----0-------------|
--0-------------------|--0--------2----------|----------------------|
----------------------|----------------------|--3--------4----------|
-----------3----------|----------------------|----------------------|

           ^                                                         
--3--2-----0--2--3----|--5-----5--7--5--3----|--2--0--------7s-5----|
--------3--0----------|--3--------0----------|--------3-------------|
-----------0----------|--2--------0----------|--2--------0----------|
-----------2----------|--0-------------------|--0-------------------|
--3-------------------|----------------------|-----------3----------|
----------------------|-----------3----------|----------------------|

                                  ^                                  
--3--2--0-----0h-2----|--0--------0--2h-3----|--5-----5--7--5--3----|
--1--------3----------|--0--------0----------|-----------0----------|
--0--------2----------|-----------0----------|----------------------|
-----------0----------|--------2-------------|--0-----0-------------|
----------------------|-----2----------------|-----0----------------|
----------------------|--0--------0----------|-----------3----------|

                                                         ^           
--2--------0--2h-3----|--------------7s-5----|--3--2-----0--2h-3----|
--------3--0----------|--1-----1--0----------|--------3--0----------|
-----2-----0----------|--0-----0-------------|--5--------0----------|
--0-----0-------------|-----2----------------|----------------------|
----------------------|--3--------4----------|--3-------------------|
-----------0----------|----------------------|-----------0----------|

                                                                     
--5-----5--7--5--3----|--2--0--------7s-5----|--3h-2--0-----0--2----|
-----------0----------|--------3--1----------|--1--------3----------|
----------------------|--------2--0----------|--0--------2----------|
--0-----0-------------|--0-------------------|-----------0----------|
-----0----------------|-----------3----------|----------------------|
-----------3----------|----------------------|----------------------|

           ^                                                         
--0--------10~--------|--10----8--7-----5----|--3-----7--10---------|
-----------7----------|--7--------0----------|-----0-----7----------|
--------0--7----------|--7--------0----------|--0-----7--7----------|
-----------0----------|--------------0-------|-----------0----------|
-----2----------------|----------------------|----------------------|
--0-------------------|-----------3----------|----------------------|

                            ^                                                   
--5-----8--7-----5----|--3--10---|--10----8~-7~----5----|--3-----7--5~---------|
--0--------5----------|--0--7----|--7--------0----------|-----0----------------|
----------------------|-----7~---|--7--------0----------|--0-----7--------2----|
----------------------|--2--0----|--------------0-------|--------------2-------|
--6--------7----------|----------|----------------------|-----------0----------|
----------------------|----------|-----------3----------|----------------------|

                                  ^                                  
--0--2--3--2----------|-----------10~--------|--10----8~-7~----5----|
--2--------3----------|-----------7----------|--7--------0----------|
--2-------------------|-----2s-7--7----------|--7--------0----------|
-----------0-----0----|--4-------------------|--------------0-------|
--0-----------0-------|-----------9----------|----------------------|
----------------------|----------------------|-----------3----------|

                                                   ^                            
--3-----7--10~--------|--5~----8--7~----5----|--3--7~---|--7-----5--3-----2----|
-----0-----7----------|--0--------5----------|--0--4----|--4--------0----------|
--0-----7--7----------|----------------------|-----4----|--4-------------------|
-----------0----------|----------------------|--2--4----|-----------2----------|
----------------------|--6--------7----------|----------|----------------------|
----------------------|----------------------|----------|----------------------|

                                                         ^           
--0-----3--2--0--2----|--6s----6s-7~---------|--------2--0--2h-3----|
--0--------2-----2----|-----7----------------|-----4-----0----------|
--------------3-------|----------------------|--4--------0----------|
--2--------4----------|--4--------------4----|-----------2----------|
----------------------|--------------2-------|----------------------|
----------------------|----------------------|----------------------|

  ^                               ^                                  
--5-----5--7--5--3----|--2-----2--0--2--3----|--------------7--5----|
--3--------0----------|-----------0----------|--1-----1--0----------|
--2--------0----------|--2-----2--0----------|--0-----0-------------|
--0-------------------|--0--------2----------|----------------------|
----------------------|----------------------|--3--------4----------|
-----------3----------|----------------------|----------------------|

           ^                                                         
--3--2-----0--2--3----|--5-----5--7--5--3----|--2--0--------7s-5----|
--------3--0----------|--3--------0----------|--------3-------------|
-----------0----------|--2--------0----------|--2--------0----------|
-----------2----------|--0-------------------|--0-------------------|
--3-------------------|----------------------|-----------3----------|
----------------------|-----------3----------|----------------------|

                         ^
--3h-2--0-----0h-2----|--0----||
--1--------3----------|--0----||
--0--------2----------|--0----||
-----------0----------|--2----||
----------------------|--2----||
----------------------|--0----||


Legend
L - tied note
x - dead note
h - hammer on/pull off
b - bend
s - slide
~ - vibrato
g - ghost note
> - accentuated note
t - trill
M - palm mute
. - staccato
P - popping (bass)
S - slapping (bass)
+ - tapping
W - wide vibrato
< - fade in
w - whammy bar
= - tremolo picking
v - brush up
^ - brush down
V - pick stroke up
n - pick stroke down
Login or Register to remove this ad.

1 comment on Rose of May

Very nice!

5

Very nice! Though measure 12 is easier this way (left hand fingers are marked above the measure):

   4     4     2  4 
   3     3
   1        1    
|--------------7s-5----|
|-----------0----------|
|--5-----5-------------|
|--5-----5-------------|
|--3--------4----------|
|----------------------|