Protecting My Devotion (Final Fantasy IX) Guitar Tab

Submitted: Jun 19, 2010 by Daugreano (Last updated: Jun 19, 2010)

5
Average: 5 (3 votes)
Download | Listen
Game: Final Fantasy IX
Composer(s): Nobuo Uematsu
Style: Alternate picking, Transcription
Series: Final Fantasy

This song is also called Something to Protect

AutoScroll: Slow | Medium | Fast
Song: Protecting My Devotion
Game: Final Fantasy IX 
Composer: Nobuo Uematsu
Tabbed by: Daugreano
 


Guitar: 

   E   E   E   Q    E     E   E   E   Q    E     E   E   E   Q    E     E   E   E   E   E    E    
E|----------------------|----------------------|----------------------|-------------------------|
B|----------------------|----------------------|----------------------|-------------------------|
G|-------------0----0---|-2---0----------------|----------------------|-----2---0---------------|
D|-0---2---3------------|---------3---2----2---|-0---2---3------------|-------------3---2-------|
A|----------------------|----------------------|-------------1----1---|-0-------------------3---|
E|----------------------|----------------------|----------------------|-------------------------|

   E   E   E   Q    E     E   E   E   E   E    E    E   E   E   E   E   E     E   E   E   Q    E
E|----------------------|-------------------------|-------------------------|----------------------|
B|----------------------|-------------------------|-------------------------|----------------------|
G|-------------0----0---|-2---0-------------------|-----2---0---------------|----------------------|
D|-0---2---3------------|---------3---2---0-------|-------------3---2---0---|-----0---2---0----L---|
A|----------------------|---------------------3---|-1-----------------------|-3--------------------|
E|----------------------|-------------------------|-------------------------|----------------------|

Repeat from the beginning...

   Q.    Q    E     Q    E   Q    E     Q.    Q    E     Q    E   Q.      Q.    Q    E
E|----------------|-------------------|----------------|----------------|----------------|
B|-1-----1--------|-------------------|-1--------------|----------------|-1-----1--------|
G|------------3---|-2----0--------2---|-------0----3---|-2----0---------|------------3---|
D|----------------|----------3--------|----------------|----------3-----|----------------|
A|----------------|-------------------|----------------|----------------|----------------|
E|----------------|-------------------|----------------|----------------|----------------|

   Q    E   Q    E     Q.    E   E   E     H.       Q.    Q    E     Q    E   Q    E   
E|-------------------|-------------------|--------|----------------|-------------------|
B|-------------------|-------------------|--------|-1-----1--------|-------------------|
G|-2----0--------2---|-0-----------------|--------|------------3---|-2----0--------2---|
D|----------3--------|-------0---2---3---|-2------|----------------|----------3--------|
A|-------------------|-------------------|--------|----------------|-------------------|
E|-------------------|-------------------|--------|----------------|-------------------|

   Q.    Q    E     Q    E   Q.      Q.    Q    E     Q    E   Q    E     E   E   E   E   E   E
E|----------------|----------------|----------------|-------------------|-------------------------|
B|-1--------------|----------------|----------------|-------------------|-------------------------|
G|-------0----3---|-2----0---------|-2-----2----0---|-------------------|-------------1-------1---|
D|----------------|----------3-----|----------------|-3----2---0----3---|-2---0---2-------2-------|
A|----------------|----------------|----------------|-------------------|-------------------------|
E|----------------|----------------|----------------|-------------------|-------------------------|

   H.
E|--------|
B|--------|
G|-2------|
D|--------|
A|--------|
E|--------|


Login or Register to remove this ad.

2 comments on Protecting My Devotion

Amazing!

5

Guy, this tab is amazing! Not hard to play, and it sounds good! Congrats!

Great Tab

5

Great Tab! one thing tho, what does the "L" stands for?