The Place I'll Return To Someday (SongeLeReveur/docjazz4 Version) (Final Fantasy IX) Guitar Tab

Submitted: Aug 25, 2010 by ForestMarth

5
Average: 5 (1 vote)
Download | Listen
Game: Final Fantasy IX
Composer(s): Nobuo Uematsu
Style: 2 or more instruments, Arrangement, Transcription
Series: Final Fantasy

Click here for a video example.

AutoScroll: Slow | Medium | Fast
Final Fantasy IX - The Place I'll Return To Someday

Composed by : Nobuo Uematsu

Arranged by : SongeLeReveur/docjazz4

Tabbed by : ForestMarth

Platform : PlayStation


I'm sorry but rythm is not respected IN THE INTRODUCTION (here and in the Guitar Pro file).
Don't hesitate to take the intro of this tab and put it rythm ! :-)
Look at SongeLeReveur video to hear the rythm.

For the rest of the song, I have put the rythm in the tab.




Guitar (Intro) WITHOUT RYTHM



          
E||-----------------0------5--------------5------8--------------8----
B||------------6----------------6---------------------6--------------
G||-------7--------------------------7---------------------7---------
D||--0---------------------------------------------------------------
A||------------------------------------------------------------------
E||------------------------------------------------------------------


       
--5-------------------------------------------0----5--------------
-------6---------6---------------------6----------------6---------
------------7---------------------7--------------------------7----
-----------------------------0------------------------------------
------------------------------------------------------------------
------------------------------------------------------------------


       
--5----8----------------5--------------0----------------5---------
------------6----------------6----------------6--------------6----
-----------------7----------------7----------------7--------------
------------------------------------------------------------------
------------------------------------------------------------------
------------------------------------------------------------------


       
---------------------------10----------10------------10--------------------
----------------------------8-----------8-------------8--------------------
--7--------------(10)------------10----------10------------10---------7----
------------0----------------------------------------------------0---------
---------------------------------------------------------------------------
---------------------------------------------------------------------------


       
--8---------8-----------8---------------------5---------5---------
--5---------5-----------5---------------------3---------3---------
-------7---------7-----------7---------5-----------5---------5----
----------------------------------0-------------------------------
------------------------------------------------------------------
------------------------------------------------------------------


       
--5---------------------5---------5-----------5--------------------
--3---------------------3---------3-----------3--------------------
-------5---------5-----------5---------5---------------------10----
------------0-------------------------------------------0----------
-------------------------------------------------------------------
-------------------------------------------------------------------


        
--10----------10------------10----------------------8---------8---------
---8-----------8-------------8----------------------5---------5---------
--------10----------10------------10---------7-----------7---------7----
----------------------------------------0-------------------------------
------------------------------------------------------------------------
------------------------------------------------------------------------


       
--8---------------------5---------5-----------5-------------------
--5---------------------3---------3-----------3-------------------
-------7---------5-----------5---------5-----------5---------7----
------------0-------------------------------------------0---------
------------------------------------------------------------------
------------------------------------------------------------------


      
--8------------5-----3--|
--5------------3-----3--|
------------5--------4--|
-------0----------0-----|
------------------------|
------------------------|




Guitar (The Song) WITH RYTHM



     Dm              F                G6              Dm                  
     S  S S S S S E  S S S S S E.     S  S S S S S E  S    S S S S S S S  
E||---------1--------------1-------|---------0-----------------1---------|
B||-------3---3----------1---1-L---|-------3---3-------------3---3---3---|
G||-----2-------2------2-----------|-----0-------0-------0g2-------2---2-|
D||--0-----------------------------|------------------0------------------|
A||--------------------------------|-------------------------------------|
E||---------------0--1-------------|--3------------3---------------------|


                 F                Em              A7              
  S S S S S S E  S S S S S E.     S  S S S S S E  S  S S S S E.   
--------1--------------1-------|---------0---------------0-------|
------3---3----------1---1-L---|-----------0-----------2---2-L---|
----2-------2------2-----------|-------0-----0-------0-----------|
--0----------------------------|-----2---------------------------|
-------------------------------|---------------2--0--------------|
--------------0--1-------------|--0------------------------------|


  Dm              F                G6              Dm                
  S  S S S S S E  S S S S S E.     S  S S S S S E  S  S S S S S S S  
---------1--------------1-------|---------0---------------1---------|
-------3---3----------1---1-L---|-------3---3-----------3---3---3---|
-----2-------2------2-----------|-----0-------0-------2-------2---2-|
--0-----------------------------|------------------0----------------|
--------------------------------|-----------------------------------|
---------------0--1-------------|--3------------3-------------------|


                    Am7             G7       A         Dm             
  S S S S S S S  S  E   S S Q       S  S S S S  S  S S S  S S S Q     
--------1-------------------0----|---------1---------0----1----------|
------3---3---------------1------|-------0---------2--------3--------|
----2-------2---(2)-----0--------|-----0-------(2)------------2------|
--0-----------0------------------|---------------------0--------0----|
--------------------0------------|-----------0-----------------------|
---------------------------------|--3--------------------------------|


                  Dsus2                  Dm               Am7             
  S S S S S S S S S     S S S S S S S    S  S S S S S S S S   S S S Q     
----------1-------------------0-------|-----------1-----------------0----|
------3-------3-----------3-------3---|-------3-------3-----------1------|
----2---2---2---2-------2---2---2---2-|-----2---2---2---2-------0--------|
--0---------------0-------------------|--0--------------------2----------|
--------------------------------------|-------------------0--------------|
--------------------------------------|----------------------------------|


  Dm               Dsus2                  F       A7       D             
  S  S S S S S S S S     S S S S S S S    S S S S S  S S S S S S S Q     
-----------1-------------------0-------|--------1--------0---2----------|
-------3-------3-----------3-------3---|------1--------2-------3--------|
-----2---2---2---2-------2---2---2---2-|----2--------0-----------2------|
--0----------------0-------------------|-------------------0-------0----|
---------------------------------------|----------0---------------------|
---------------------------------------|--1-----------------------------|


  Dm               Dsus2                
  S  S S S S S S S S     S S S S S S S  
-----------1-------------------0-------|
-------3-------3-----------3-------3---|
-----2---2---2---2-------2---2---2---2-|
--0----------------0-------------------|
---------------------------------------|
---------------------------------------|


  Dm               Am7                    
  S  S S S S S S S S   S S S T  T  S S S  
-----------1-----------------0h-3p-0-----|
-------3-------3-----------1---------1---|
-----2---2---2---2-------0-------------0-|
--0--------------------2-----------------|
-------------------0---------------------|
-----------------------------------------|


  Dm               Dsus2                  F       A7       D             
  S  S S S S S S S S     S S S S S S S    S S S S S  S S S S S S S Q     
-----------1-------------------0-------|--------1--------0---2----------|
-------3-------3-----------3-------3---|------1--------2-------3--------|
-----2---2---2---2-------2---2---2---2-|----2--------0-----------2------|
--0----------------0-------------------|-------------------0-------0----|
---------------------------------------|----------0---------------------|
---------------------------------------|--1-----------------------------|


  Dm              F               G6              Dm                
  S  S S E  S S S S S S S Q       S  S S S S S E  S  S S S S S S S  
---------1--------------1------|---------0---------------1---------|
-------3--------------1---1----|-------3---3-----------3---3---3---|
-----2------2---2---2----------|-----0-------0-------2-------2---2-|
--0----------------------------|------------------0----------------|
-------------------------------|-----------------------------------|
--------------0---1------------|--3------------3-------------------|


                    F               Em              A7                
  S S S S S S S  S  S S S S Q       S  S S S S S E  S  S S S S S S S  
--------1-----------------1------|---------0---------------0---------|
------3---3-------------1---1----|-----------0-----------2---2-------|
----2-------2---(2)---2----------|-------0-----0-------0-------0---0-|
--0------------------------------|-----2-------------------------2---|
---------------------------------|---------------2--0----------------|
--------------0--L--1------------|--0--------------------------------|


  Dm              F                G6              Dm                    
  S  S S S S S E  S S S S S E.     S  S S S S S E  S   S   S  S S S S S  
---------1--------------1-------|---------0-------------------1---------|
-------3---3----------1---1-L---|-------3---3-------------(3)---3---3---|
-----2-------2------2-----------|-----0-------0-------(2)---------2---2-|
--0-----------------------------|------------------0--------------------|
--------------------------------|---------------------------------------|
---------------0--1-------------|--3------------3-----------------------|


                         Am7             G7    A7              
   ^                     ^                     ^               
            |--3--|                                            
   E.   S S T  T  T  S S E   E  E.  S    E  E  E  Q.     Q     
---1----1-3-1h-3p-1p-0-------5--0---3-|--1--0--0--0-----------|
---3-------------------3-1------------|--0-----2--------------|
---2---------------------0------------|--0-----0--------------|
--(0)--------------------2------------|-----------------------|
-------------------------0------------|--------0--------------|
--------------------------------------|--3--------------------|


      |--3--|                   
  T T T  T  T H        Q.       
------8p-5p-0-L--------L------||
----6-------------------------||
--7---------------------------||
------------------------------||
------------------------------||
------------------------------||




Ocarina 1 (The Song) WITH RYTHM



     E.  S    E  E   Q    E  S S      E   E  E.   S  E  E  E  E   
E||--------------------------7-8-|--8g7--------------------------|
B||--------------8--10-----------|-------10--8---10--------------|
G||--7---9-9g10------------------|------------------10--9--7--5--|
D||------------------------------|-------------------------------|
A||------------------------------|-------------------------------|
E||------------------------------|-------------------------------|


                |----5---|                                           
  E.  S  E  E   T T T T  T  E  E  S S      E   E   E  E   Q    Q     
----------------------------------7-8-|--8g7------------------------|
------------8--10-8-6-8-10--L---------|-------10--10--9--10---------|
--7---9-10----------------------------|-----------------------------|
--------------------------------------|-----------------------------|
--------------------------------------|-----------------------------|
--------------------------------------|-----------------------------|


                                                     |---3--|        
  E.  S  E  E   Q    E  S S      E   E  E.   S  E  S T   T  T E  E   
------------------------7-8-|--8g7----------------------------------|
------------8--10-----------|-------10--8---10----------------------|
--7---9-10------------------|------------------10--9-9h-10p-9-7--5--|
----------------------------|---------------------------------------|
----------------------------|---------------------------------------|
----------------------------|---------------------------------------|


             |---3---|                                              
   E.   S S  T   T   T S S  E   E  E.  S     E  E  E.  S Q    Q     
-----------------------------------------|-------------------------|
----------8--------------------10------8-|-------------------------|
--10---10---10h-12p-10-9-7---------9-----|--10--9--9---7-7---------|
---------------------------10------------|-------------------------|
-----------------------------------------|-------------------------|
-----------------------------------------|-------------------------|


   Q     E.   S E.  S  E  E      E   S S  E  E  Q    S E.   
--10---------10-8---7--------|---------------7--8----8-----|
--------10------------10--8--|--10-----8-10----------------|
-----------------------------|------10---------------------|
-----------------------------|-----------------------------|
-----------------------------|-----------------------------|
-----------------------------|-----------------------------|


                     |--3--|                                      
   Q     E.   S E  S T  T  T  E  E      E   E  E  S S Q    S E.   
--10---------10-8--7-7h-8p-7--------|----------------------------|
--------10-------------------10--8--|------10--------------------|
------------------------------------|--10------9--7-6-7----L-----|
------------------------------------|----------------------------|
------------------------------------|----------------------------|
------------------------------------|----------------------------|


   Q     E.   S E.  S  E  E      E   S S  E  E  Q    S E.   
--10---------10-8---7--------|---------------7--8----8-----|
--------10------------10--8--|--10-----8-10----------------|
-----------------------------|------10---------------------|
-----------------------------|-----------------------------|
-----------------------------|-----------------------------|
-----------------------------|-----------------------------|


                     |--3--|                                      
   Q     E.   S E  S T  T  T  E  E      E   E  E  S S Q    S E.   
--10---------10-8--7-7h-8p-7--------|----------------------------|
--------10-------------------10--8--|------10--------------------|
------------------------------------|--10------9--7-6-7----L-----|
------------------------------------|----------------------------|
------------------------------------|----------------------------|
------------------------------------|----------------------------|


  E.  S  E  E   Q    E  S S      E   E  E.   S  E  E  E  E   
------------------------7-8-|--8g7--------------------------|
------------8--10-----------|-------10--8---10--------------|
--7---9-10------------------|------------------10--9--7--5--|
----------------------------|-------------------------------|
----------------------------|-------------------------------|
----------------------------|-------------------------------|


                |----5---|                                           
  E.  S  E  E   T T T T  T  E  E  S S      E   E   E  E   Q    Q     
----------------------------------7-8-|--8g7------------------------|
------------8--10-8-6-8-10--L---------|-------10--10--9--10---------|
--7---9-10----------------------------|-----------------------------|
--------------------------------------|-----------------------------|
--------------------------------------|-----------------------------|
--------------------------------------|-----------------------------|


                                                     |---3--|        
  E.  S  E  E   Q    E  S S      E   E  E.   S  E  S T   T  T E  E   
------------------------7-8-|--8g7----------------------------------|
------------8--10-----------|-------10--8---10----------------------|
--7---9-10------------------|------------------10--9-9h-10p-9-7--5--|
----------------------------|---------------------------------------|
----------------------------|---------------------------------------|
----------------------------|---------------------------------------|


             |---3---|                                             
   E.   S S  T   T   T S S  E   E  E.  S     E  E  E  Q.     Q     
-----------------------------------------|------------------------|
----------8--------------------10------8-|------------------------|
--10---10---10h-12p-10-9-7---------9-----|--10--9--9--9-----------|
---------------------------10------------|------------------------|
-----------------------------------------|------------------------|
-----------------------------------------|------------------------|


  |-----5-----|                   
  T  T  T  T  T E  H.             
--------------------------------||
--------------------------------||
--7h-9p-7p-5h-7-L--L------------||
--------------------------------||
--------------------------------||
--------------------------------||




Ocarina 2



     W                   W                   W                 
E||-------------------|-------------------|-------------------|
B||-------------------|-------------------|-------------------|
G||-------------------|-------------------|-------------------|
D||-------------------|-------------------|-------------------|
A||-------------------|-------------------|-------------------|
E||-------------------|-------------------|-------------------|


  W                   W                   W                   W                 
-------------------|-------------------|-------------------|-------------------|
-------------------|-------------------|-------------------|-------------------|
-------------------|-------------------|-------------------|-------------------|
-------------------|-------------------|-------------------|-------------------|
-------------------|-------------------|-------------------|-------------------|
-------------------|-------------------|-------------------|-------------------|


  W                   W                   W                   W                 
-------------------|-------------------|-------------------|-------------------|
-------------------|-------------------|-------------------|-------------------|
-------------------|-------------------|-------------------|-------------------|
-------------------|-------------------|-------------------|-------------------|
-------------------|-------------------|-------------------|-------------------|
-------------------|-------------------|-------------------|-------------------|


  W                   W                   W                   W                 
-------------------|-------------------|-------------------|-------------------|
-------------------|-------------------|-------------------|-------------------|
-------------------|-------------------|-------------------|-------------------|
-------------------|-------------------|-------------------|-------------------|
-------------------|-------------------|-------------------|-------------------|
-------------------|-------------------|-------------------|-------------------|


  W                    E.   S  E   E   Q    E   S  S  
-------------------|---------------------------------|
-------------------|--------------12--13-------15-17-|
-------------------|--10---12-14---------------------|
-------------------|---------------------------------|
-------------------|---------------------------------|
-------------------|---------------------------------|


      E   E   E.   S  E   E   E  E   
------------------------------------|
--17g15--13--12---13----------------|
---------------------14--12--10--9--|
------------------------------------|
------------------------------------|
------------------------------------|


   E.   S  E   E   T   T  T  T  E  E   S  S        E   E   E   E   Q    Q     
--------------------------------------------|--------------------------------|
--------------12--13p-12----12-13-----15-17-|--17g15--13--13--12--14---------|
--10---12-14-------------14-----------------|--------------------------------|
--------------------------------------------|--------------------------------|
--------------------------------------------|--------------------------------|
--------------------------------------------|--------------------------------|


   E.   S  E   E   Q    E   S  S  
---------------------------------|
--------------12--13-------15-17-|
--10---12-14---------------------|
---------------------------------|
---------------------------------|
---------------------------------|


                             |---3---|         
      E   E   E.   S  E   S  T   T   T  E  E   
----------------------------------------------|
--17g15--13--12---13--------------------------|
---------------------14--12-12h-14p-12-10--9--|
----------------------------------------------|
----------------------------------------------|
----------------------------------------------|


              |---3---|                                                   
   E.   S  S  T   T   T  S  S E   E   E.   S     E   E   E   E  H         
---------------------------------------------|---------------------------|
--10---10-11-10h-11p-10----------13-------11-|--10-----------------------|
------------------------12-10-9------12------|------12--12--12-----------|
---------------------------------------------|---------------------------|
---------------------------------------------|---------------------------|
---------------------------------------------|---------------------------|


  W                  
-------------------||
-------------------||
-------------------||
-------------------||
-------------------||
-------------------||




Duration Legend
---------------
W - whole
H - half
Q - quarter
E - 8th
S - 16th
T - 32nd
X - 64th
. - note dotted
|-n-|  - n-tuplets


Tablature Legend
----------------
L - tied note
x - dead note
g - grace note
(n) - ghost note
> - accentuded note
NH - natural harmonic
AH - artificial harmonic
TH - tapped harmonic
SH - semi harmonic
PH - pitch harmonic
h - hammer on
p - pull off
b - bend
br - bendRelease
pb - preBend
pbr - preBendRelease
brb - bendReleaseBend
\n/ - tremolo bar dip
\n - tremolo bar dive
-/n - tremolo bar Release up
/n\ - tremolo bar inverted dip
/n - tremolo bar return
-\n - tremolo bar Release down
S - shift slide
s - legato slide
/ -  slide into from below or out of upwards
\ -  slide into from above or out of downwards
~ - vibrato
W - wide vibrato
tr - trill
TP - tremolo picking
T - tapping
S - slap
P - pop
< - fade in
^ - brush up
v - brush down
Login or Register to remove this ad.

1 comment on The Place I'll Return To Someday (SongeLeReveur/docjazz4 Version)

Surprised nobody has noticed

Surprised nobody has noticed this before now. I played through all the parts and I can tell, if someone wanted to it with a few other people or do a layered recording guitar specific, it would be very awesome. Who knows, maybe I'll do it, I need to get back into VG mixing.