Ads

The Place I'll Return to Someday (Final Fantasy IX) Ukulele Tab

Submitted: Jul 06, 2011 by drakoni.metal

5
Average: 5 (3 votes)
Download | Listen
Game: Final Fantasy IX
Composer(s): Nobuo Uematsu
Style: Transcription
Series: Final Fantasy

AutoScroll: Slow | Medium | Fast
     Q.     E  Q    Q       H.           E  E     Q    Q    Q.     E     Q    Q    Q    Q     
A||----------------------|---------------2--3--|--2-------------------|----------------------|
E||-----------------3----|--5------------------|-------5----3------5--|----------------------|
C||--2------4--5---------|---------------------|----------------------|--5----4----2----0----|
G||----------------------|---------------------|----------------------|----------------------|


  Q.     E  Q    Q       H.           E  E     Q    Q    Q    Q       H        H         
----------------------|---------------2--3--|--2-------------------|--------------------|
-----------------3----|--5------------------|-------5----5----4----|--5-----------------|
--2------4--5---------|---------------------|----------------------|--------------------|
----------------------|---------------------|----------------------|--------------------|


  Q.     E  Q    Q       H.           E  E     Q    Q    Q.     E     Q    Q    Q    Q     
----------------------|---------------2--3--|--2-------------------|----------------------|
-----------------3----|--5------------------|-------5----3------5--|----------------------|
--2------4--5---------|---------------------|----------------------|--5----4----2----0----|
----------------------|---------------------|----------------------|----------------------|


  Q.     E  E  E  E  E     Q    Q    Q    E  E     Q    Q    Q    Q       H.           Q     
------------------------|-----------------------|----------------------|--------------------|
------------3-----------|-------5------------3--|----------------------|--------------------|
--5------5-----5--4--2--|--0---------4----4-----|--5----4----4----0----|--2-----------------|
------------------------|-----------------------|----------------------|--------------------|


  H        Q    Q       Q.     E  Q    Q       Q    E  E  Q    Q       H        H         
--5-------------5----|--3------2------------|------------------2----|--3--------3--------|
-----------5---------|------------5----3----|--5-------3--5---------|--------------------|
---------------------|----------------------|-------5---------------|--------------------|
---------------------|----------------------|-----------------------|--------------------|


  H        Q    Q       Q.     E  Q    Q       Q    Q    Q    E  E     H        H         
--5-------------5----|--3------2------------|-----------------------|--------------------|
-----------5---------|------------5----3----|-------5---------------|--------------------|
---------------------|----------------------|--5---------4----2--0--|--2--------2--------|
---------------------|----------------------|-----------------------|--------------------|


  H        Q    Q       Q.     E  Q    Q       Q    E  E  Q    Q       H        H         
--5-------------5----|--3------2------------|------------------2----|--3--------3--------|
-----------5---------|------------5----3----|--5-------3--5---------|--------------------|
---------------------|----------------------|-------5---------------|--------------------|
---------------------|----------------------|-----------------------|--------------------|


  H        Q    Q       Q.     E  Q    Q       Q    Q    Q    E  E     H        W                  
--5-------------5----|--3------2------------|-----------------------|----------------------------||
-----------5---------|------------5----3----|-------5---------------|----------------------------||
---------------------|----------------------|--5---------4----2--0--|--2-------------------------||
---------------------|----------------------|-----------------------|----------------------------||




Duration Legend
---------------
W - whole
H - half
Q - quarter
E - 8th
S - 16th
T - 32nd
X - 64th
. - note dotted
|-n-|  - n-tuplets
Login or Register to remove this ad.

2 comments on The Place I'll Return to Someday

Correctionmeasures 23 and

Correction

measures 23 and 24:

   Q    Q    Q    E  E     H        H         
|-----------------------|--------------------|
|-------5---------------|--------------------|
|--5---------4----2--0--|--2--------2--------|
|-----------------------|--------------------|

should be:

   Q    Q    Q    E  E     H        H         
|-----------------------|--------------------|
|-------5---------------|--------------------|
|--5---------4----2--1--|--2--------2--------|
|-----------------------|--------------------|

the end of the song should also have this correction

Wonderful!

5

Great job!