Ads

The Place I'll Return to Someday (Final Fantasy IX) Guitar Tab

Submitted: Oct 05, 2010 by Max_depa

4.8
Average: 4.8 (5 votes)
Download | Listen
Game: Final Fantasy IX
Composer(s): Nobuo Uematsu
Style: Arrangement, Fingerstyle
Series: Final Fantasy

AutoScroll: Slow | Medium | Fast
The place i'll return someday - Final Fantasy IX
Arranged by: Max_depa
Composed by: Nobuo Eumatsu                                
                                                   
           ^  ^                                       ^     ^      
     E.  S E  E     S S S S E  S S    E  E  E  S S    E  E  E  E   
E||------0-1--3--|--5----------7-8-|--7--5--3----5-|--1--0--------|
B||--3-----3--1--|--------5-6------|--------1------|--0-----3--1--|
G||--2-----2--0--|----5-7------7-0-|--7--5--0------|--0-----2-----|
D||--------0--2--|--7--------------|-----3--2--3---|--0--2--3--2--|
A||--------------|-----------------|--7-----3--0---|--------0-----|
E||--------------|-----------------|---------------|--3-----------|


  ^     ^        ^                       ^        ^                    ^  ^   
  E.  S E  E     E  S S E  S S    E  S S E  E     E  S S Q       E.  S E  E   
------0-1--3--|--5---------7-8-|--7--5---5--4--|--5------0----|------0-1--3--|
--3-----3-----|--3------1------|---------5-----|-----3---2----|--3-----3--1--|
--------2--0--|----------------|--7--5---5--4--|--5----0-2----|--2-----2--0--|
--3-----0-----|--3--0-3-2--7---|-----3---7-----|--0--3--------|--------0--2--|
--5-----3--2--|--0-------------|--5------7-----|--0-----------|--------------|
--------------|----------------|---------------|--------------|--------------|


                                    ^     ^        ^      ^        
  S S S S E  S S    E  E  E  S S    E  E  E  E     E  S S S S S S  
--5----------7-8-|--7--5--3----5-|--1--0--------|--1----1-3-1-0---|
--------5-6------|--------1------|--0-----3--1--|--0------1-----3-|
----5-7------7---|--7--5--0------|--------2-----|--2------0-------|
--7----------5---|-----3--2--3---|--0--2--3--2--|--3------2-------|
-----------------|--7-----3--0---|--------0-----|-----------------|
-----------------|---------------|--3-----------|-----------------|


  ^     ^                         ^             ^               ^     ^      
  E  E  E  S S    E  S S E  E     Q    Q        Q     E   E     E.  S E  E   
-----5--0----3-|--1--0---0--0--|------------|--10--------10--|--8---7-5--3--|
--1-----1------|---------3--2--|--3---------|--------10------|--------3-----|
--2-----2------|--2------0-----|--0----0----|--10------------|--7-----4-----|
--3-----2------|--0--2-3-------|--2----4----|--------10------|--7-----5-----|
--------3--2---|--0------------|------------|----------------|--8-----------|
---------------|---------------|------------|--10------------|--------------|


  ^      ^        ^    ^        ^               ^     ^        ^             
  E  S S E  E     Q    Q        Q     E   E     E.  S E  E     E  E  E  S S  
--5--1-3-5--7--|--8----8----|--10--------10--|--8---7-5--3--|--1--5--0------|
---------5--8--|--6----5----|--------10------|--------3-----|--3--5-----3-2-|
--5------4--7--|--5----5----|--10------------|--7-----4-----|--2--0--0------|
--0------------|--5----7----|--------10------|--7-----5-----|-----7--7------|
---------3-----|--0---------|----------------|--8-----------|--3-----0------|
---------------|------------|--10------------|--------------|---------------|


  E  E  Q       
--------------||
--3-----3-----||
-------------*||
--0-----3----*||
-----0--------||
--------------||




Duration Legend
---------------
W - whole
H - half
Q - quarter
E - 8th
S - 16th
T - 32nd
X - 64th
. - note dotted
|-n-|  - n-tuplets


Tablature Legend
----------------
L - tied note
x - dead note
g - grace note
(n) - ghost note
> - accentuded note
NH - natural harmonic
AH - artificial harmonic
TH - tapped harmonic
SH - semi harmonic
PH - pitch harmonic
h - hammer on
p - pull off
b - bend
br - bendRelease
pb - preBend
pbr - preBendRelease
brb - bendReleaseBend
\n/ - tremolo bar dip
\n - tremolo bar dive
-/n - tremolo bar Release up
/n\ - tremolo bar inverted dip
/n - tremolo bar return
-\n - tremolo bar Release down
S - shift slide
s - legato slide
/ -  slide into from below or out of upwards
\ -  slide into from above or out of downwards
~ - vibrato
W - wide vibrato
tr - trill
TP - tremolo picking
T - tapping
S - slap
P - pop
< - fade in
^ - brush up
v - brush down
Login or Register to remove this ad.

4 comments on The Place I'll Return to Someday

Awesome job!

5

Awesome job!

I prefer "Songe Nuit"

I prefer "Songe Nuit" arrangment

Good job!

4

while the fingering is a bit jumpy and I would maybe prefer some different melody notes in a couple places, I love this song, and this does do it justice! One thing that always stood out to me about this song was how much depth the multiple flutes added to the piece. Don't get the wrong idea, I know arranging a piece is hard; but it would be nice to get a bit more polyphony into this. But whatever, all in all, a very good arrangement.

And also, Thank you for tabbing out FF songs; I really do like the music from these games, and its always refreshing to play a new arrangement.

thanks!

thanks for your kind and sincere comment^^ i'll try to do better in future =)