Ads

The Place I'll Return to Someday (Final Fantasy IX) Ukulele Tab

Submitted: Dec 18, 2009 by Stamen47

5
Average: 5 (5 votes)
Download | Listen
Game: Final Fantasy IX
Composer(s): Nobuo Uematsu
Style: Arrangement, Fingerstyle
Series: Final Fantasy

AutoScroll: Slow | Medium | Fast
                       The Place I'll Return to Someday                         

Music by Nobuo Uematsu
Tab by Stamen47

     E.  S E  E     S S S  S E  S   S    E  E  E  S S    E  E  E  E   
A||--0---2-3--5--|--7-----------9S-10-|--9--7--5----7-|--3--2--0-----|
E||--------5--7--|--5---5S-7-8--------|--7--7--7--5---|--L-----0-----|
C||--------------|--4-----------------|---------------|--------0-----|
G||-----------0--|----0---------------|-----0---------|-----0-----0--|


  E.  S E  E     Q    E   S  S     E  E  E  E     E  S S Q       E.  S E  E   
--0---2-3--5--|--7--------9-10-|---9--7--7--6--|--7-----------|--0---2-3--5--|
--0-----5--7--|--5-------10----|--10-----5--7--|--7--5---4----|--------5--7--|
--------------|--4-------------|---------------|-----0-2-4----|--------------|
-----------0--|-------0--------|------0--------|--0-----------|-----------0--|


  S S S  S E  S   S    E  E  E  S S    E  E  E  E     E  S S S S S S  
--7-----------9S-10-|--9--7--5----7-|--3--2--0-----|--3----3-5-3-2-0-|
--5---5S-7-8--------|--7--7--7--5---|--L-----0-----|-----3-------2---|
--4-----------------|---------------|--------0-----|-----------------|
----0---------------|-----0---------|-----0-----0--|--2------4-------|


  E  E  E  S S    E  E  E  E     E  S S Q        Q    E   E      E.  S E  E   
-----7--2----5-|--3--2--2--2--|--0-----------|--12----7--12--|--10---9-7--5--|
-----5-----2---|--0--3-----4--|-----0--------|---0-----------|---7-----------|
-----------2---|--------2-----|-------2-1----|---0-----------|---------------|
--0-----0------|--2-----------|--2-----------|---------------|---0-----------|


  E  S S E   E      Q     Q        Q    E   E      E.  S E  E     E  E  E  S S  
--7--3-5-7---9--|--10----10----|--12----7--12--|--10---9-7--5--|--3--7--2--0---|
--5------8--10--|---------0----|---0-----------|---7-----------|--5-----2--0---|
----------------|--11----11----|---0-----------|---------------|--4------------|
----------------|--------------|---------------|---0-----------|-------------1-|


  Q    Q        Q    E   E      E.  S E  E     E  S S E   E      Q     Q     
--0----0----|--12----7--12--|--10---9-7--5--|--7--3-5-7---9--|--10----10----|
--0----0----|---0-----------|---7-----------|--5------8--10--|---------0----|
------------|---0-----------|---------------|----------------|--11----11----|
------------|---------------|---0-----------|----------------|--------------|


   Q    E   E      E.  S E  E     E  E  E  S S    H          
--12----7--12--|--10---9-7--5--|--3--7--2--0---|--0--------||
---0-----------|---7-----------|--5-----2--0---|--0--------||
---0-----------|---------------|--4------------|--1--------||
---------------|---0-----------|-------------1-|-----------||




Duration Legend
---------------
W - whole
H - half
Q - quarter
E - 8th
S - 16th
. - note dotted


Tablature Legend
----------------
L - tied note
S - shift slide
/ -  slide into from below or out of upwards
\ -  slide into from above or out of downwards
Login or Register to remove this ad.

2 comments on The Place I'll Return to Someday

i love how youre starting to

5

i love how youre starting to do uke tabs. represent!

I love this, minus the small

5

I love this, minus the small bit at the end with the moving 4th (22 to 00 and then 1 way at the bottom in the bass).

I prefer:

   Q    E   E      E.  S E  E     E  E  E  S S    H          
--12----7--12--|--10---9-7--5--|--3--7--2--0---|--0--------||
---0-----------|---7-----------|--5----(0)---4-|--0--------||
---0-----------|---------------|--4------------|--1--------||
---------------|---0-----------|--------4------|-----------||