The Place I'll Return to Someday (Final Fantasy IX) Mandolin Tab

Submitted: Jun 03, 2009 by LoneCentrist (Last updated: Feb 04, 2010)

3
Average: 3 (1 vote)
Download | Listen
Game: Final Fantasy IX
Composer(s): Nobuo Uematsu
Style: Transcription
Series: Final Fantasy

AutoScroll: Slow | Medium | Fast
The Place I'll Return to Someday
Final Fantasy IX
Composed by Nobou Uematsu
Tabbed by Rob Van
6/2/09

E|----------------------|----------------------|----------------------|
A|----------------------|--0---------2----3----|--2----0---------0----|
D|--0----2----3----5----|----------------------|------------5---------|
G|----------------------|----------------------|----------------------|

E|----------------------|----------------------|----------------------|
A|----------------------|----------------------|--0---------2-----3---|
D|--3----2----0---------|--0----2----3----5----|----------------------|
G|-----------------5----|----------------------|----------------------|

E|----------------------|----------------------|----------------------|
A|--2----0----0---------|--0-------------------|----------------------|
D|-----------------6----|----------------------|--0----2----3----5----|
G|----------------------|----------------------|----------------------|

E|----------------------|----------------------|----------------------|
A|--0--------2----3-----|--2----0--------------|----------------------|
D|----------------------|-------------5--------|--3----2----0---------|
G|----------------------|----------------------|-----------------5----|

E|----------------------|----------------------|----------------------|
A|----------------------|-----------------0----|----------------------|
D|--3----3----5----3----|--2----0--------------|--2----5----3----2----|
G|----------------------|------------5---------|----------------------|

E|----------------------|----------------------|----------------------|
A|----------------------|----------------------|--5----0----5----3----|
D|--2----2----0---------|----------------------|----------------------|
G|----------------------|----------------------|----------------------|

E|----------------------|----------------------|----------------------|
A|--2----0---------0----|------------0----0----|--5----0----5----3----|
D|------------5---------|--3----5--------------|----------------------|
G|----------------------|----------------------|----------------------|

E|----------------------|----------------------|----------------------|
A|--2----0---------0----|----------------------|-------5----0----5----|
D|------------5---------|--5----2---------0----|--0-------------------|
G|----------------------|------------6---------|----------------------|

E|----------------------|----------------------|----------------------|
A|--3----2----0---------|--0--------------0----|--0----5----0----5----|
D|-----------------5----|-------3----5---------|----------------------|
G|----------------------|----------------------|----------------------|

E|----------------------|----------------------|----------------------|
A|--3----2----0---------|----------------------|----------------------|
D|-----------------5----|--3----5----2----0----|-------0--------------|
G|----------------------|----------------------|--6-------------------|
Login or Register to remove this ad.