Ads

Pandemonium (Final Fantasy IX) Guitar Tab

Submitted: Oct 24, 2017 by thedstring

5
Average: 5 (1 vote)
Download | Listen
Game: Final Fantasy IX
Composer(s): Nobuo Uematsu
Style: Arrangement, Fingerstyle
Series: Final Fantasy

This song is also called The Castle Frozen in Time

AutoScroll: Slow | Medium | Fast
Title: Pandemonium - The Castle Frozen in Time
From: Final Fantasy IX
Standard Tuning

     q  q  q  q     ( all quarter notes )
E |----------------|----------------|----------------|----------------|
B |--1--1--1--1----|--1--1--1--1----|--1--1--1--1----|--1--1--1--1----|
G |--2--2--2--2----|--2--2--2--2----|--2--2--2--2----|--2--2--2--2----|
D |--2--2--2--2----|--2--2--2--2----|--2--2--2--2----|--2--2--2--2----|
A |--0-------------|----------------|----------------|----------------|
E |----------------|--3-------------|--1-------------|--0-------------|

                                                     w
----------------|----------------|----------------|--0------------|
--5--5--5--5----|--5--5--5--5----|--5--5--5--5----|--1------------|
--5--5--5--5----|--5--5--5--5----|--5--5--5--5----|--2------------|
--5--5--5--5----|--4--4--4--4----|--3--3--3--3----|--2------------|
--0-------------|----------------|----------------|---------------|
----------------|----------------|----------------|---------------|


     e  e  e  e  e  ( all eighth notes )
||------0-----0-----0-----0----|--------------0-----1-------|--0-------------------------|--1-------------------------|
||---1-----3-----0-----1-------|--3-----1--3-----3-----3----|-----1--------1--0-----1----|-----1--0--1-----1-----1----|
||*--2-------------------------|----------------------------|-----------2--------2-------|--0-----------2-----0-------|
||*----------------------------|-----0----------------------|--------2-------------------|----------------------------|
||---0-------------------------|----------------------------|----------------------------|----------------------------|
||-----------------------------|--3-------------------------|--1-------------------------|--1-------------------------|



-----0-----0-----0-----0----|-----0-----0-----0-----0----|--------------0-------------|--------------------0-------|
--------3-----1-----0-------|--------3-----0-----3-------|-----1--0--1-----1-----1----|--------0--1-----1-----1----|
----------------------------|--1--------2--------1-------|--2-----------------0-------|-----5--------2-----0-------|
--2-------------------------|--2-------------------------|----------------------------|--4-------------------------|
--0-------------------------|----------------------------|--0-------------------------|--5-------------------------|
----------------------------|--0-------------------------|----------------------------|----------------------------|



--1-----------0-------------|-----0-----0-----0-----0----|-----0-----0-----0-----0----|-----0----------------------|
-----1--0--1-----1-----1----|--------3-----3-----0-------|--1-----1--0--1-----0-------|--3--------3-----3-----3----|
--2-----------2-----2-------|--1--------2--4-----1-------|--------------2-------------|--------5-----4-----4-------|
----------------------------|----------------------------|----------------------------|--0-------------------------|
----------------------------|----------------------------|--0-------------------------|----------------------------|
--1-------------------------|--0-------------------------|----------------------------|----------------------------|



--1-----------------1-------|-----0-----0-----0-----0----|----------------------------|--3-------------------------|
-----1--0--1-----1-----1----|--------3-----0-----0-------|-----3--1--3--0--3-----3----|--------1--3--0--3----------|
--------------2-------------|--1--------2--------1-------|--2-----------------2-------|--0-----------------0-------|
--0-----------------3-------|----------------------------|----------------------------|-----0----------------------|
----------------------------|----------------------------|----------------------------|----------------------------|
----------------------------|--0-------------------------|--1-------------------------|--3-------------------------|



----------------|----------------|----------------|----------------|
--1--1--1--1----|--1--1--1--1----|--1--1--1--1----|--1--1--1--1----|
--2--2--2--2----|--2--2--2--2----|--2--2--2--2----|--2--2--2--2----|
--2--2--2--2----|--2--2--2--2----|--2--2--2--2----|--2--2--2--2----|
--0-------------|----------------|----------------|----------------|
----------------|--3-------------|--1-------------|--0-------------|


                                    w
----------------|----------------|----------------|--0-------------||
--5--5--5--5----|--5--5--5--5----|--5--5--5--5----|--1-------------||
--5--5--5--5----|--5--5--5--5----|--5--5--5--5----|--2------------*||
--5--5--5--5----|--4--4--4--4----|--3--3--3--3----|--2------------*||
--0-------------|----------------|----------------|--0-------------||
----------------|----------------|----------------|----------------||

Login or Register to remove this ad.