Over That Hill (jit version) (Final Fantasy IX) Ukulele Tab

Submitted: Jan 25, 2012 by ForestMarth

5
Average: 5 (2 votes)
Download | Listen
Game: Final Fantasy IX
Composer(s): Nobuo Uematsu
Style: Arrangement, Transcription
Series: Final Fantasy

This song is also called Crossing Those HIlls

Click here for a video example.

AutoScroll: Slow | Medium | Fast
             Final Fantasy IX - Crossing Those Hills


Composed by : Nobuo Uematsu

Arranged by : Jit (aka Jero924 on YouTube)

Tabbed by : ForestMarth

Platform : PlayStation





Ukulele 1 (harmony)



     G                              Dm                           
     E  S E  S S S E  S E  S S S    E  S E  S S S E  S E  S S S  
A||--2--2-2--2-2-2-2--2-2--2-2-2-|--0--0-0--0-0-0-0--0-0--0-0-0-|
E||--3--3-3--3-3-3-3--3-3--3-3-3-|--1--1-1--1-1-1-1--1-1--1-1-1-|
C||--2--2-2--2-2-2-2--2-2--2-2-2-|--2--2-2--2-2-2-2--2-2--2-2-2-|
G||--0--0-0--0-0-0-0--0-0--0-0-0-|--2--2-2--2-2-2-2--2-2--2-2-2-|


  G                              Dm7                           
  E  S E  S S S E  S E  S S S    E   S E  S S S E  S E  S S S  
--2--2-2--2-2-2-2--2-2--2-2-2-|--3---3-3--3-3-3-3--3-3--3-3-3-|
--3--3-3--3-3-3-3--3-3--3-3-3-|--1---1-1--1-1-1-1--1-1--1-1-1-|
--2--2-2--2-2-2-2--2-2--2-2-2-|--2---2-2--2-2-2-2--2-2--2-2-2-|
--0--0-0--0-0-0-0--0-0--0-0-0-|--2---2-2--2-2-2-2--2-2--2-2-2-|


  G                              Em                           
  E  S E  S S S E  S E  S S S    E  S E  S S S E  S E  S S S  
--2--2-2--2-2-2-2--2-2--2-2-2-|--2--2-2--2-2-2-2--2-2--2-2-2-|
--3--3-3--3-3-3-3--3-3--3-3-3-|--3--3-3--3-3-3-3--3-3--3-3-3-|
--2--2-2--2-2-2-2--2-2--2-2-2-|--4--4-4--4-4-4-4--4-4--4-4-4-|
--0--0-0--0-0-0-0--0-0--0-0-0-|--0--0-0--0-0-0-0--0-0--0-0-0-|


  C                              Bm                           
  E  S E  S S S E  S E  S S S    E  S E  S S S E  S E  S S S  
--3--3-3--3-3-3-3--3-3--3-3-3-|--2--2-2--2-2-2-2--2-2--2-2-2-|
--0--0-0--0-0-0-0--0-0--0-0-0-|--2--2-2--2-2-2-2--2-2--2-2-2-|
--0--0-0--0-0-0-0--0-0--0-0-0-|--2--2-2--2-2-2-2--2-2--2-2-2-|
--0--0-0--0-0-0-0--0-0--0-0-0-|--4--4-4--4-4-4-4--4-4--4-4-4-|


  C                              G                            
  E  S E  S S S E  S E  S S S    E  S E  S S S E  S E  S S S  
--3--3-3--3-3-3-3--3-3--3-3-3-|--2--2-2--2-2-2-2--2-2--2-2-2-|
--0--0-0--0-0-0-0--0-0--0-0-0-|--3--3-3--3-3-3-3--3-3--3-3-3-|
--0--0-0--0-0-0-0--0-0--0-0-0-|--2--2-2--2-2-2-2--2-2--2-2-2-|
--0--0-0--0-0-0-0--0-0--0-0-0-|--0--0-0--0-0-0-0--0-0--0-0-0-|


  Am                             D7                           
  E  S E  S S S E  S E  S S S    E  S E  S S S E  S E  S S S  
--0--0-0--0-0-0-0--0-0--0-0-0-|--3--3-3--3-3-3-3--3-3--3-3-3-|
--0--0-0--0-0-0-0--0-0--0-0-0-|--2--2-2--2-2-2-2--2-2--2-2-2-|
--0--0-0--0-0-0-0--0-0--0-0-0-|--2--2-2--2-2-2-2--2-2--2-2-2-|
--2--2-2--2-2-2-2--2-2--2-2-2-|--2--2-2--2-2-2-2--2-2--2-2-2-|


   Bm n°2                                                
   E      S   E    S   S   S   E    S   E    S   S   S   
--(5)----(5)-(5)--(5)-(5)-(5)-(5)--(5)-(5)--(5)-(5)-(5)-|
---7------7---7----7---7---7---7----7---7----7---7---7--|
---6------6---6----6---6---6---6----6---6----6---6---6--|
---7------7---7----7---7---7---7----7---7----7---7---7--|


  E                              C n°2                           
  E  S E  S S S E  S E  S S S    E     S E  S S S E  S E  S S S  
--2--2-2--2-2-2-2--2-2--2-2-2-|--3-----3-3--3-3-3-3--3-3--3-3-3-|
--4--4-4--4-4-4-4--4-4--4-4-4-|--3-----3-3--3-3-3-3--3-3--3-3-3-|
--4--4-4--4-4-4-4--4-4--4-4-4-|--4-----4-4--4-4-4-4--4-4--4-4-4-|
--4--4-4--4-4-4-4--4-4--4-4-4-|--0-----0-0--0-0-0-0--0-0--0-0-0-|


  Cm                             G                            
  E  S E  S S S E  S E  S S S    E  S E  S S S E  S E  S S S  
--3--3-3--3-3-3-3--3-3--3-3-3-|--2--2-2--2-2-2-2--2-2--2-2-2-|
--3--3-3--3-3-3-3--3-3--3-3-3-|--3--3-3--3-3-3-3--3-3--3-3-3-|
--3--3-3--3-3-3-3--3-3--3-3-3-|--2--2-2--2-2-2-2--2-2--2-2-2-|
--0--0-0--0-0-0-0--0-0--0-0-0-|--0--0-0--0-0-0-0--0-0--0-0-0-|


  C                              G                            
  E  S E  S S S E  S E  S S S    E  S E  S S S E  S E  S S S  
--3--3-3--3-3-3-3--3-3--3-3-3-|--2--2-2--2-2-2-2--2-2--2-2-2-|
--0--0-0--0-0-0-0--0-0--0-0-0-|--3--3-3--3-3-3-3--3-3--3-3-3-|
--0--0-0--0-0-0-0--0-0--0-0-0-|--2--2-2--2-2-2-2--2-2--2-2-2-|
--0--0-0--0-0-0-0--0-0--0-0-0-|--0--0-0--0-0-0-0--0-0--0-0-0-|


  D7                             C                            
  E  S E  S S S E  S E  S S S    E  S E  S S S E  S E  S S S  
--3--3-3--3-3-3-3--3-3--3-3-3-|--3--3-3--3-3-3-3--3-3--3-3-3-|
--2--2-2--2-2-2-2--2-2--2-2-2-|--0--0-0--0-0-0-0--0-0--0-0-0-|
--2--2-2--2-2-2-2--2-2--2-2-2-|--0--0-0--0-0-0-0--0-0--0-0-0-|
--2--2-2--2-2-2-2--2-2--2-2-2-|--0--0-0--0-0-0-0--0-0--0-0-0-|


  C                              D                            
  E  S E  S S S E  S E  S S S    E  S E  S S S E  S E  S S S  
--3--3-3--3-3-3-3--3-3--3-3-3-|--x--x-x--x-x-x-x--x-x--x-x-x-|
--0--0-0--0-0-0-0--0-0--0-0-0-|--5--5-5--5-5-5-5--5-5--5-5-5-|
--0--0-0--0-0-0-0--0-0--0-0-0-|--2--2-2--2-2-2-2--2-2--2-2-2-|
--0--0-0--0-0-0-0--0-0--0-0-0-|--2--2-2--2-2-2-2--2-2--2-2-2-|


  It's an alternative D chord (not in Jit Version).                           
  D alt                                                                       
  E                                                 S E  S S S E  S E  S S S  
--0-------------------------------------------------0-0--0-0-0-0--0-0--0-0-0-|
--2-------------------------------------------------2-2--2-2-2-2--2-2--2-2-2-|
--2-------------------------------------------------2-2--2-2-2-2--2-2--2-2-2-|
--2-------------------------------------------------2-2--2-2-2-2--2-2--2-2-2-|


  Bm                             Bm                           
  E  S E  S S S E  S E  S S S    E  S E  S S S E  S E  S S S  
--2--2-2--2-2-2-2--2-2--2-2-2-|--2--2-2--2-2-2-2--2-2--2-2-2-|
--2--2-2--2-2-2-2--2-2--2-2-2-|--2--2-2--2-2-2-2--2-2--2-2-2-|
--2--2-2--2-2-2-2--2-2--2-2-2-|--2--2-2--2-2-2-2--2-2--2-2-2-|
--4--4-4--4-4-4-4--4-4--4-4-4-|--4--4-4--4-4-4-4--4-4--4-4-4-|


  E                              E                            
  E  S E  S S S E  S E  S S S    E  S E  S S S E  S E  S S S  
--2--2-2--2-2-2-2--2-2--2-2-2-|--2--2-2--2-2-2-2--2-2--2-2-2-|
--4--4-4--4-4-4-4--4-4--4-4-4-|--4--4-4--4-4-4-4--4-4--4-4-4-|
--4--4-4--4-4-4-4--4-4--4-4-4-|--4--4-4--4-4-4-4--4-4--4-4-4-|
--4--4-4--4-4-4-4--4-4--4-4-4-|--4--4-4--4-4-4-4--4-4--4-4-4-|


  Am                             F7M                           
  E  S E  S S S E  S E  S S S    E   S E  S S S E  S E  S S S  
--0--0-0--0-0-0-0--0-0--0-0-0-|--0---0-0--0-0-0-0--0-0--0-0-0-|
--0--0-0--0-0-0-0--0-0--0-0-0-|--0---0-0--0-0-0-0--0-0--0-0-0-|
--0--0-0--0-0-0-0--0-0--0-0-0-|--5---5-5--5-5-5-5--5-5--5-5-5-|
--2--2-2--2-2-2-2--2-2--2-2-2-|--5---5-5--5-5-5-5--5-5--5-5-5-|


  Dm                             Em                           
  E  S E  S S S E  S E  S S S    E  S E  S S S E  S E  S S S  
--0--0-0--0-0-0-0--0-0--0-0-0-|--2--2-2--2-2-2-2--2-2--2-2-2-|
--1--1-1--1-1-1-1--1-1--1-1-1-|--3--3-3--3-3-3-3--3-3--3-3-3-|
--2--2-2--2-2-2-2--2-2--2-2-2-|--4--4-4--4-4-4-4--4-4--4-4-4-|
--2--2-2--2-2-2-2--2-2--2-2-2-|--0--0-0--0-0-0-0--0-0--0-0-0-|


  C                              C                            
  E  S E  S S S E  S E  S S S    E  S E  S S S E  S E  S S S  
--3--3-3--3-3-3-3--3-3--3-3-3-|--3--3-3--3-3-3-3--3-3--3-3-3-|
--0--0-0--0-0-0-0--0-0--0-0-0-|--0--0-0--0-0-0-0--0-0--0-0-0-|
--0--0-0--0-0-0-0--0-0--0-0-0-|--0--0-0--0-0-0-0--0-0--0-0-0-|
--0--0-0--0-0-0-0--0-0--0-0-0-|--0--0-0--0-0-0-0--0-0--0-0-0-|


  D n°2                             D7                           
  E     S E  S S S E  S E  S S S    E  S E  S S S E  S E  S S S  
--5-----5-5--5-5-5-5--5-5--5-5-5-|--3--3-3--3-3-3-3--3-3--3-3-3-|
--2-----2-2--2-2-2-2--2-2--2-2-2-|--2--2-2--2-2-2-2--2-2--2-2-2-|
--2-----2-2--2-2-2-2--2-2--2-2-2-|--2--2-2--2-2-2-2--2-2--2-2-2-|
--2-----2-2--2-2-2-2--2-2--2-2-2-|--2--2-2--2-2-2-2--2-2--2-2-2-|


  D7                             G                    
  E  S E  S S S E  S E  S S S    Q    Q    H          
--3--3-3--3-3-3-3--3-3--3-3-3-|--2----2----2--------||
--2--2-2--2-2-2-2--2-2--2-2-2-|--3----3----3--------||
--2--2-2--2-2-2-2--2-2--2-2-2-|--2----2----2--------||
--2--2-2--2-2-2-2--2-2--2-2-2-|--0----0----0--------||






Ukulele 2 (melody)



     W                   W                   W                 
A||-------------------|-------------------|-------------------|
E||-------------------|-------------------|-------------------|
C||-------------------|-------------------|-------------------|
G||-------------------|-------------------|-------------------|


  W                   H        Q    Q       H        Q    Q     
-------------------|--2--------2---------|---------------------|
-------------------|----------------5----|--3--------3----2----|
-------------------|---------------------|---------------------|
-------------------|---------------------|---------------------|


  Q    Q    Q    Q       H.           Q       Q    Q    Q    Q     
----------------------|--------------------|----------------------|
-------2----3----5----|--------------------|-------2----3---------|
--4-------------------|--2------------2----|--4--------------4----|
----------------------|--------------------|----------------------|


  Q    Q    Q    Q         Q    Q    Q    Q       H.           E  E   
-----------------2----|--2g3----2---------2----|---------------0--2--|
------------3---------|--------------3---------|--5------------------|
--4----2--------------|------------------------|---------------------|
----------------------|------------------------|---------------------|


  H        Q    Q       Q    Q    Q    Q       Q    Q    Q    Q     
--5--------5----7----|--5----3----3----2----|--2--------------2----|
---------------------|----------------------|-------5----5---------|
---------------------|----------------------|----------------------|
---------------------|----------------------|----------------------|


  H.           E  E     H.           E  E     H        E  E  E  E   
--3------------2-----|---------------------|-----------------2-----|
------------------5--|--3------------------|--3--------L--5-----5--|
---------------------|---------------2--4--|-----------------------|
---------------------|---------------------|-----------------------|


  W                   W                   W                 
-------------------|-------------------|-------------------|
--3----------------|-------------------|-------------------|
-------------------|-------------------|-------------------|
-------------------|-------------------|-------------------|


  Q    Q    Q    Q       Q    E  H        E     W                 
--3----2--------------|----------------------|-------------------|
------------5----3----|--2----3--5--------L--|-------------------|
----------------------|----------------------|-------------------|
----------------------|----------------------|-------------------|


  W                   Q    Q    Q    Q       Q    E  H        E   
-------------------|--5----3----2---------|----------2--------L--|
-------------------|-----------------5----|--4----5--------------|
-------------------|----------------------|----------------------|
-------------------|----------------------|----------------------|


  W                   H        H           W                 
-------------------|--3--------2--------|-------------------|
-------------------|--------------------|--5----------------|
-------------------|--------------------|-------------------|
-------------------|--------------------|-------------------|


  Q    Q    Q    Q       Q    Q    Q    Q       W                 
-------2----3----2----|----------------------|--2----------------|
----------------------|--5----3----2----3----|-------------------|
----------------------|----------------------|-------------------|
----------------------|----------------------|-------------------|


  H        Q    Q       W                   W                 
-----------5----3----|-------------------|-------------------|
---------------------|--5----------------|-------------------|
---------------------|-------------------|-------------------|
---------------------|-------------------|-------------------|


  W                   W                  
-------------------|-------------------||
-------------------|-------------------||
-------------------|-------------------||
-------------------|-------------------||




Duration Legend
---------------
W - whole
H - half
Q - quarter
E - 8th
S - 16th
T - 32nd
X - 64th
. - note dotted
|-n-|  - n-tuplets


Tablature Legend
----------------
L - tied note
x - dead note
g - grace note
(n) - ghost note
Login or Register to remove this ad.

1 comment on Over That Hill (jit version)

thanks! i was actually

5

thanks! i was actually considering tabbing this out but you nailed it