Ads

Moogle's Theme (Final Fantasy IX) Guitar Tab

Submitted: Jun 08, 2013 by Colin_spade

5
Average: 5 (4 votes)
Download | Listen
Game: Final Fantasy IX
Composer(s): Nobuo Uematsu
Style: Arrangement, Fingerstyle
Series: Final Fantasy

AutoScroll: Slow | Medium | Fast
                                Moogle's Theme                                 


                                                                   Nobuo Uematsu
Track 1 (Capo 3)



                                                                      |--3--|   
     Q    Q    Q    Q       Q    Q    Q    Q         E  E  E  E  Q    E  E  E   
E||--0-------------------|----------------------||---------------5-------------|
B||------------0---------|----------------------||---------0--2-------0--2--3--|
G||-------3---------0----|--1-------------------||*--1--2----------------------|
D||--2-------------------|-------1----2---------||*----------------------------|
A||------------2---------|----------------------||---0-------------------------|
E||----------------------|--4---------0---------||---------------0-------------|


       |--3--|                                                            
  Q    E  E  E  E  E  E  E     Q    E  E  Q    Q       H        H         
--4-------------2--0--------|-----------------------|--------------------|
----------0--2--------3--2--|--0----0---------------|--------------------|
-------2--------------------|----------2--0---------|--------------------|
----------------------------|------------------3----|--1-----------------|
--0-------------------------|-------------3---------|--0-----------------|
----------------0-----------|--1--------------------|-----------1--------|


                   |--3--|          |--3--|               
  E  E  E  E  Q    E  E  E     Q    E  E  E  E  E  E  E   
--------------5-------------|--4-------------2--0--------|
--------0--2-------0--2--3--|----------0--2--------3--2--|
--1--2----------------------|-------2--------------------|
----------------------------|----------------------------|
--0-------------------------|--0-------------------------|
--------------0-------------|----------------0-----------|


                                                                |--3--|   
  Q    E  E  Q    Q       H        H           E  E  E  E  Q    E  E  E   
-----------------------|--1-----------------|--------------5-------------|
--0----0----------0----|--------------------|--------0--2-------0--2--3--|
----------2--0---------|--------------------|--1--2----------------------|
------------------0----|--------------------|----------------------------|
-----------------------|--1-----------------|--0-------------------------|
--1----------3---------|-----------1--------|--------------0-------------|


       |--3--|                                                            
  Q    E  E  E  E  E  E  E     Q    E  E  Q    Q       H        H         
--4-------------2--0--------|-----------------------|--------------------|
----------0--2--------3--2--|--0----0---------------|--------------------|
-------2--------------------|----------2--0---------|--------------------|
----------------------------|------------------3----|--1-----------------|
--0-------------------------|-----------------------|--0-----------------|
----------------0-----------|--1--------------------|-----------1--------|


                   |--3--|          |--3--|               
  E  E  E  E  Q    E  E  E     Q    E  E  E  E  E  E  E   
--------------5-------------|--4-------------2--0--------|
--------0--2-------0--2--3--|----------0--2--------3--2--|
--1--2----------------------|-------2--------------------|
----------------------------|----------------------------|
--0-------------------------|--0-------------------------|
--------------0-------------|----------------0-----------|


  Q    E  E  Q    Q       H        H           E  E  E  E  E  E  E  E   
-----------------------|--1-----------------|--------------------------|
--0----0----------0----|--------------------|--4-----------------------|
----------2--0---------|--------------------|-----------1--------------|
------------------0----|--------------------|--4--3--4-----4--1--------|
-----------------------|--1-----------------|--2-----------------2-----|
--1----------3---------|-----------1--------|-----------------------4--|


  Q    Q    Q    Q       E  E  E  E  E  E  E  E     E  E  E  E  E  E  E  E   
------------7----6----|--5-----------------------|--0-----------------1--2--|
-------0--------------|--------------------------|--------------------------|
----------------------|--------------------------|--0-----1--2--1-----------|
----------------------|-----------4--2-----------|-----4-----------2--------|
----------------------|--7--6--7--------4--0-----|--3-----------------4-----|
--2-------------------|--5--------------------2--|--------------------------|


  E  E  E  E  E  E  Q       Q    E  E  E  E  E  E     Q    Q    Q    Q     
--3----------------------|-------------------------|----------------------|
--------0--1--0----------|--0----2--2--0-----------|--0----2----0---------|
--3--2-----------0-------|----------------2--1--2--|----------------------|
--1-----------------2----|--2----------------2-----|------------2---------|
-------------------------|-------------0-----------|-------0--------------|
-------------------------|-------0--0--------------|----------------------|


                            ^                     
  Q    E  E  E  E  E  E     Q    Q    H           
-------------------------|----------------------||
--0----2-----0-----------|--0-------------------||
----------------2--1--2--|--0----0-------------*||
-------------------2-----|--1---------1--------*||
-------------0-----------|----------------------||
-------0--0--------------|----------------------||




Duration Legend
---------------
W - whole
H - half
Q - quarter
E - 8th
S - 16th
T - 32nd
X - 64th
. - note dotted
|-n-|  - n-tuplets


Tablature Legend
----------------
L - tied note
x - dead note
g - grace note
(n) - ghost note
> - accentuded note
NH - natural harmonic
AH - artificial harmonic
TH - tapped harmonic
SH - semi harmonic
PH - pitch harmonic
h - hammer on
p - pull off
b - bend
br - bendRelease
pb - preBend
pbr - preBendRelease
brb - bendReleaseBend
\n/ - tremolo bar dip
\n - tremolo bar dive
-/n - tremolo bar Release up
/n\ - tremolo bar inverted dip
/n - tremolo bar return
-\n - tremolo bar Release down
S - shift slide
s - legato slide
/ -  slide into from below or out of upwards
\ -  slide into from above or out of downwards
~ - vibrato
W - wide vibrato
tr - trill
TP - tremolo picking
T - tapping
S - slap
P - pop
< - fade in
^ - brush up
v - brush down
Login or Register to remove this ad.

1 comment on Moogle's Theme

Beautiful!

5

Beautiful!