Ads

Garnet's Theme (Final Fantasy IX) Guitar Tab

Submitted: Aug 18, 2013 by Colin_spade

5
Average: 5 (2 votes)
Download | Listen
Game: Final Fantasy IX
Composer(s): Nobuo Uematsu
Style: Arrangement, Fingerstyle
Series: Final Fantasy

AutoScroll: Slow | Medium | Fast
Garnet's Theme                                  


                                                                   Nobuo Uematsu
Track 1



      E  E  E  E  E  E   4x  E  E  E  E  E  E     E  E  E  E  E  E   
E||------0-----5-----0---||--5-----------------|--------------------|
B||---2-----2-----2------||--5-----------------|--------------------|
G||*--------------------*||--6-----------------|--------------------|
D||*-----------0--------*||-----------0--------|-----------0--------|
A||---0--2--0-----0--2---||--0-----0-----0-----|--0--2--0-----0--2--|
E||----------------------||-----7-----------7--|--------------------|


  E  E  E  E  E  E     E  E  E  E  E  E     E  E  E  E  E  E   
--3-----------------|--------------------|--2-----------------|
--3-----------------|--------------------|--3-----------------|
--4-----------------|--------------------|--2-----------------|
-----------0--------|-----------0--------|-----------0--------|
--0--2--0-----0--2--|--0--2--0-----0--2--|--0--2--0-----0--2--|
--------------------|--------------------|--------------------|


  E  E  E  E  E  E     E  E  E  E  E  E     E  E  E  E  E  E   
--------------------|--------------------|--------------------|
--------------------|--------------------|--------------------|
--------------------|--------------------|--------------------|
-----------0--------|-----------0--------|-----------0--------|
--0--2--0-----0--2--|--0--2--0-----0--2--|--0--2--0-----0--2--|
--------------------|--------------------|--------------------|


  E  E  E  E  E  E     E  E  E  E  E  E     E  E  E  E  E  E   
--5-----------------|--------------------|--3-----------------|
--5-----------------|--------------------|--3-----------------|
--6-----------------|--------------------|--4-----------------|
-----------0--------|-----------0--------|-----------0--------|
--0-----0-----0-----|--0--2--0-----0--2--|--0--2--0-----0--2--|
-----7-----------7--|--------------------|--------------------|


  E  E  E  E  E  E     E  E  E  E  E  E     E  E  E  E  E  E   
--------------------|--2-----------------|--------------------|
--------------------|--3-----------------|--------------------|
--------------------|--2-----------------|--------------------|
-----------0--------|-----------0--------|-----------0--------|
--0--2--0-----0--2--|--0--2--0-----0--2--|--0--2--0-----0--2--|
--------------------|--------------------|--------------------|


  E  E  E  E  E  E     E  E  E  E  E  E       E  E  E  E  E  E   
--------------------|--------------------||---2-----------------|
--------------------|--------------------||---------------------|
--------------------|--------------2-----||*-----2-----2-----2--|
-----------0--------|-----------0--------||*--4-----4-----4-----|
--0--2--0-----0--2--|--0--2--0-----0--2--||---5-----------------|
--------------------|--------------------||---------------------|


  E  E  E  E  E  E     E  E  E  E  E  E     E  E  E  E  E  E   
--2-----------0-----|--------------------|--------------------|
--------------------|--3-----------------|--3-----------2-----|
-----2-----2-----2--|-----2-----2-----2--|-----2-----2-----2--|
--4-----4-----2-----|--4-----4-----4-----|--4-----4-----4-----|
--5-----------4-----|--2-----------------|--2-----------0-----|
--------------------|--------------------|--------------------|


  E  E  E  E  E  E     E  E  E  E  E  E     E  E  E  E  E  E   
--------------------|--------------0-----|--------------------|
--0-----------2-----|--3-----------------|--------------------|
--------------------|--------------------|--2-----------------|
--0--4--0--4--0--4--|--0--4--0--4--0--4--|-----2-----2-----2--|
--------------------|--------------------|--4-----4-----4-----|
--3-----------------|--3-----------------|--2-----------------|


  E  E  E  E  E  E     E  E  E  E  E  E     E  E  E  E  E  E   
--------------------|--------------------|--------------------|
--------------------|--0-----------2-----|--3-----------0-----|
--------------------|--------------------|--------------------|
-----2-----2-----2--|--0--4--0--4--0--4--|--0--4--0--4--0--4--|
--4-----4-----4-----|--------------------|--------------------|
--2-----------------|--3-----------------|--3-----------------|


  E  E  E  E  E  E     E  E  E  E  E  E     E  E  E  E  E  E   
--------------------|--------------2-----|--3-----------2-----|
--0-----------------|--3-----------------|-----0-----0-----0--|
-----2-----2--2--2--|-----2-----2-----2--|--0-----0-----0-----|
--4-----4-----4-----|--4-----4-----4-----|--2-----------------|
--5-----------------|--5-----------------|--------------------|
--------------------|--------------------|--------------------|


  E  E  E  E  E  E     E  E  E  E  E  E     E  E  E  E  E  E   
--------------2-----|--0-----------------|--------------2-----|
--3--3-----3-----3--|--------------------|--2-----------------|
--0-----0-----0-----|--2-----------------|--2-----------------|
--2-----------------|--4--2--4--2--4--2--|--4--2--4--2--4--2--|
--------------------|--0-----------------|--0-----------------|
--------------------|--------------------|--------------3-----|


  E  E  E  E  E  E     E  E  E  E  E  E     E  E  E  E  E  E   
--5-----------------|--5-----------7-----|--5-----------------|
-----2-----2-----2--|-----2-----2--------|--------------------|
--2-----2-----2-----|--2-----2--------6--|-----2-----2-----2--|
--4-----------------|--4-----------7-----|--4-----4-----4-----|
--------------------|--------------------|--2-----------------|
--------------------|--------------------|--------------------|


  E  E  E  E  E  E     E  E  E  E  E  E     E  E  E  E  E  E   
--3-----------2-----|--2-----------0-----|--0-----------2-----|
--------------------|-----0-----0-----0--|-----0-----0-----0--|
-----2-----2-----2--|--0-----0-----0-----|--0-----0-----0-----|
--1-----1-----1-----|--2-----------------|--2-----------------|
--2-----------------|--------------------|--------------------|
--------------------|--------------------|--------------------|


  E  E  E  E  E  E     E  E  E  E  E  E     E  E  E  E  E  E   
--3-----------------|--------2-----0-----|--------------------|
-----3-----3-----3--|-----3-----3-----3--|--3-----------------|
--3-----3-----3-----|--3-----3-----3-----|-----2-----2-----2--|
--5-----------------|--5-----------------|--4-----4-----4-----|
--------------------|--------------------|--5-----------------|
--------------------|--------------------|--------------------|


  E  E  E  E  E  E     E  E  E  E  E  E     E  E  E  E  E  E   
--------------------|--------------------|--0-----2--------0--|
--------------0-----|--3-----------------|--------------------|
-----2--2--2-----2--|--------------------|--------------------|
--4-----4-----4-----|--0--4--0--4--0--4--|--0--4--0--4--0--4--|
--5-----------------|--------------------|--------------------|
--------------------|--3-----------------|--3-----------------|


  E  E  E  E  E  E     E  E  E  E  E  E     E  E  E  E  E  E   
--------------------|--------------------|--------------------|
--3-----------------|--------------------|--------------------|
-----2-----2-----2--|-----2-----2-----2--|-----2-----2-----2--|
--4-----4-----4-----|--4-----4-----4-----|--4-----4-----4-----|
--5-----------------|--5-----------------|--5-----------------|
--------------------|--------------------|--------------------|


  E  E  E  E  E  E     E  E  E  E  E  E     E  E  E  E  E  E   
--------------------|--------------------|--------------------|
--------------------|--------------------|--------------------|
-----2-----2-----2--|--------------------|--------------------|
--4-----4-----4-----|--0--2--0--2--0--2--|--0--2--0--2--0--2--|
--5-----------------|--------------------|--------------------|
--------------------|--3-----------------|--3-----------------|


  E  E  E  E  E  E     E  E  E  E  E  E     E  E  E  E  E  E   
--3-----------2-----|--0-----------------|--------------------|
--------------------|--------------3-----|--2-----------3-----|
--------------------|--------------------|--------------------|
--0--2--0--2--0--2--|--0--2--0--2--0--2--|-----0-----2-----0--|
--------------------|--------------------|--4-----4-----4-----|
--3-----------------|--3-----------------|--5-----------------|


  E  E  E  E  E  E     E  E  E  E  E  E     E  E  E  E  E  E   
--0-----------------|--------------------|--------------------|
--------------------|--------------------|--------------------|
--------------------|--------------------|--------------------|
-----0-----2-----0--|-----0-----2-----0--|-----0-----2-----0--|
--4-----4-----4-----|--4-----4-----4-----|--4-----4-----4-----|
--5-----------------|--5-----------------|--5-----------------|


  E  E  E  E  E  E     E  E  E  E  E  E     E  E  E  E  E  E   
--------------------|--------------------|--5-----------3-----|
--------------------|--------------------|--------------------|
--------------------|--------------------|--------------------|
-----0-----0-----0--|-----0-----0-----0--|-----0-----0-----0--|
--4-----4-----4-----|--4-----4-----4-----|--4-----4-----4-----|
--2-----------------|--2-----------------|--2-----------------|


  E  E  E  E  E  E     E  E  E  E  E  E     E  E  E  E  E  E   
--2-----------0-----|--------------------|--2-----------------|
--------------------|--4-----------5-----|--------------------|
--------------------|-----2-----2-----2--|-----2-----2-----2--|
-----0-----0-----0--|--4-----4-----4-----|--4-----4-----4-----|
--4-----4-----4-----|--2-----------------|--2-----------------|
--2-----------------|--------------------|--------------------|


  E  E  E  E  E  E     E  E  E  E  E  E     E  E  E  E  E  E   
--------------------|--------------2-----|--3-----------------|
--------------------|--------------------|-----0-----0-----0--|
-----2-----2-----2--|-----2-----2-----2--|--0-----0-----0-----|
--4-----4-----4-----|--4-----4-----4-----|--2-----------------|
--2-----------------|--2-----------------|--------------------|
--------------------|--------------------|--------------------|


  E  E  E  E  E  E     E  E  E  E  E  E     E  E  E  E  E  E   
--2-----------------|--0-----------------|--------------------|
-----0-----0-----0--|-----0-----0-----0--|-----0-----0-----0--|
--0-----0-----0-----|--0-----0-----0-----|--0-----0-----0-----|
--0-----------------|--------------------|--------------------|
--------------------|--3-----------------|--3-----------------|
--------------------|--------------------|--------------------|


  E  E  E  E  E  E     E  E  E  E  E  E     E  E  E  E  E  E   
--------------2-----|--3-----------2-----|--0-----------------|
--------------------|--------------------|--------------3-----|
--------------------|--------------------|--------------------|
-----2-----2-----2--|-----2-----2-----2--|--0--4--0--4--0--4--|
--3-----3-----3-----|--3-----3-----3-----|--2-----------------|
--5-----------------|--5-----------------|--------------------|


  E  E  E  E  E  E     E  E  E  E  E  E     E  E  E  E  E  E   
--------------------|--2-----------------|--------5-----3-----|
--2-----------3-----|--------------------|--------------------|
--------------------|--------------------|--------------------|
--0--4--0--4--0--4--|--0--4--0--4--0--4--|--0--4--0--4--0--4--|
--2-----------------|--------------------|--------------------|
--------------------|--3-----------------|--3-----------------|


                                                                 ^             
  E  E  E  E  E  E     E  E  E  E  E  E     E  E  E  E  E  E     H.            
--0-----------------|--------------------|--------------------|--0------------|
--------------------|--------------------|--------------------|---------------|
--------------------|--------------------|--------------------|---------------|
-----0-----0-----0--|--0--2--0--2--0--2--|-----0-----0-----0--|--2------------|
--4-----4-----4-----|--------------------|--0-----0-----0-----|--4------------|
--5-----------------|--3-----------------|--2-----------------|---------------|


  E  E  E  E  E  E     E  E  E  E  E  E     E  E  E  E  E  E   
--------------------|--------------------|--------------------|
-----------3--------|-----------3--------|-----------3--------|
-----2-----------2--|-----2-----------2--|-----2-----------2--|
--4--2--2--5--4--2--|--4--2--2--5--4--2--|--4--2--2--5--4--2--|
--5-----4-----5-----|--5-----4-----5-----|--5-----4-----5-----|
--------------------|--------------------|--------------------|


  E  E  E  E  E  E     
---------------------||
---------------------||
-----------0--2-----*||
--4--2--0-----0--2--*||
--5------------------||
---------------------||




Duration Legend
---------------
W - whole
H - half
Q - quarter
E - 8th
S - 16th
T - 32nd
X - 64th
. - note dotted
|-n-|  - n-tuplets


Tablature Legend
----------------
L - tied note
x - dead note
g - grace note
(n) - ghost note
> - accentuded note
NH - natural harmonic
AH - artificial harmonic
TH - tapped harmonic
SH - semi harmonic
PH - pitch harmonic
h - hammer on
p - pull off
b - bend
br - bendRelease
pb - preBend
pbr - preBendRelease
brb - bendReleaseBend
\n/ - tremolo bar dip
\n - tremolo bar dive
-/n - tremolo bar Release up
/n\ - tremolo bar inverted dip
/n - tremolo bar return
-\n - tremolo bar Release down
S - shift slide
s - legato slide
/ -  slide into from below or out of upwards
\ -  slide into from above or out of downwards
~ - vibrato
W - wide vibrato
tr - trill
TP - tremolo picking
T - tapping
S - slap
P - pop
< - fade in
^ - brush up
v - brush down
Login or Register to remove this ad.