Ads

Frontier Village Dali (Final Fantasy IX) Guitar Tab

Submitted: Dec 20, 2019 by lognar (Last updated: Dec 24, 2019)

5
Average: 5 (4 votes)
Download | No audio :(
Game: Final Fantasy IX
Composer(s): Nobuo Uematsu
Style: Fingerstyle
Series: Final Fantasy

AutoScroll: Slow | Medium | Fast

Title: Frontier Village Dali
Artist: Nobuo Uematsu
Album: FF9
tab by Lognar

E|------------------------------|------------------------------|------------------------------|
B|-0----------------0-----------|-1----------------1-----------|-2----------------2-----------|
G|-----2-------2--------2-------|-----2-------2--------2-------|-----2-------2--------2-------|
D|---------0----------------0---|---------2----------------2---|---------2----------------2---|
A|------------------------------|------------------------------|------------------------------|
E|-3----------------------------|-3----------------------------|-3----------------------------|


E|------------------------------|---------------------------------|-0-------------------------------|
B|-1----------------1-----------|---------0---1---3-----------0---|---------3---------------0-------|
G|-----0-------0--------0-------|---------------------------------|-------------2-------2-------2---|
D|---------2----------------2---|---------0---------------0-------|---------0---------------0-------|
A|------------------------------|-----2---------------2-----------|-----2---------------2-----------|
E|-3----------------------------|-3---------------3---------------|-2---------------2---------------|


E|-------------------------3----|-2----0---------2---0---|-------------------------5----|
B|-----------------0------------|-2----------------------|-3-------0---1---3------------|
G|-0-----------0-------0--------|-3----3-----------------|------------------------------|
D|------------------------------|-2----------------------|---------0---------------0----|
A|---------2---------------2----|-3----3-----------------|-----2---------------2--------|
E|-0---3-----------0---3--------|------------------------|-3---------------3------------|


E|---------------------------------|-------------------------7----|-0----0--------------|
B|-3-------------------------------|-3-------0---1---3------------|-0----0---------3----|
G|---------------------------------|------------------------------|-2----1--------------|
D|---------0---------------0-------|---------0---------------0----|---------------------|
A|-----2-------2-------2-------2---|-----0---------------0--------|---------------------|
E|-2---------------2---------------|-1---------------1------------|-0----0--------------|


E|-------------------------3----|-1-------------------------------|---------------------------------|
B|-3-------0---1---3------------|-----1---3---1-------------------|-0-------------------0---1---0---|
G|------------------------------|-----------------0-------2-------|---------------------------------|
D|---------2---------------2----|-------------------------0-------|---------0-----------------------|
A|-0---3-----------0---3--------|---------------------0-------0---|-----2-------2-------------------|
E|------------------------------|-1---------------1---------------|-3---------------3---------------|


E|------------------------------|-3-----1---------|---------------------------------|
B|-0--------------------1-------|-1-----1----4----|---------0---1---3-----------0---|
G|-----2---2--------0-------0---|-2-----2----2----|---------------------------------|
D|-3------------1---------------|-1-----0---------|---------0---------------0-------|
A|------------------------------|------------3----|-----2---------------2-----------|
E|------------------------------|-----------------|-3---------------3---------------|


E|-0-------------------------------|-------------------------3----|-2----0---------2---0---|
B|---------3---------------0-------|-----------------0------------|-2----------------------|
G|-------------2-------2-------2---|-0-----------0-------0--------|-3----3-----------------|
D|---------0---------------0-------|------------------------------|-2----------------------|
A|-----2---------------2-----------|---------2---------------2----|-3----3-----------------|
E|-2---------------2---------------|-0---3-----------0---3--------|------------------------|


E|-------------------------5----|---------------------------------|-------------------------7----|
B|-3-------0---1---3------------|-3-------------------------------|-3-------0---1---3------------|
G|------------------------------|---------------------------------|------------------------------|
D|---------0---------------0----|---------0---------------0-------|---------0---------------0----|
A|-----2---------------2--------|-----2-------2-------2-------2---|-----0---------------0--------|
E|-3---------------3------------|-2---------------2---------------|-1---------------1------------|


E|-0----0--------------|-------------------------3----|-1-------------------------------|
B|-0----0---------3----|-3-------0---1---3------------|-----1---3---1-------------------|
G|-2----1--------------|------------------------------|-----------------0-------2-------|
D|---------------------|---------2---------------2----|-------------------------0-------|
A|---------------------|-0---3-----------0---3--------|---------------------0-------0---|
E|-0----0--------------|------------------------------|-1---------------1---------------|


E|---------------------------------|--------------------|-------------------------0----|
B|-0-------------------0---1---0---|--------------------|-----------------0------------|
G|---------------------------------|-4---2---2----2-----|-0-----------2----------------|
D|---------0-----------------------|---------4----1-----|---------2---------------2----|
A|-----2-------2-------------------|-2------------2-----|-----2---------------2--------|
E|-3---------------3---------------|--------------------|-0---------------0------------|


E|---------------------------------|-------------------------2---0---|-3-------------------0---2---3---|
B|-3-------------------------------|-----------------0---------------|---------------------------------|
G|---------4---------------2-------|---------0---2-------------------|---------0-----------------------|
D|-----4-------4-------4-------4---|---------2---------------2-------|-----2-------2-------------------|
A|-2---------------2---------------|-----2---------------2-----------|-0---------------0---------------|
E|---------------------------------|-0---------------0---------------|---------------------------------|


E|-3-------0-----------------------|-------------------------2-------|---------------------------------|
B|-----------------1-------0-------|---------------------2-------5---|-------------------------2---3---|
G|---------0---------------0-------|-3---------------2---------------|---------2-----------2-----------|
D|-----2-------2-------2-------2---|---------2-----------------------|-----4-------4-------------------|
A|-3---------------3---------------|-----4-------4-------------------|-2---------------2---------------|
E|---------------------------------|-2---------------2---------------|---------------------------------|


E|---------------------------------|---------------------------------|------------------------------|
B|-1-------------------------------|-----------------1---------------|------------------------------|
G|---------2-------2---------------|-3-------------------2---3---2---|-2------------------------0---|
D|-----4-------4---0---------------|-1---------------1---------------|-0---------------4------------|
A|-0---------------------------0---|-------------1-------------------|-------------0---5----5-------|
E|---------------------0---2-------|-----1---3-----------------------|-----0---2-------5------------|


E|---------------------------------|-0-------------------------------|-------------------------3----|
B|---------0---1---3-----------0---|---------3---------------0-------|-----------------0------------|
G|---------------------------------|-------------2-------2-------2---|-0-----------0-------0--------|
D|---------0---------------0-------|---------0---------------0-------|------------------------------|
A|-----2---------------2-----------|-----2---------------2-----------|---------2---------------2----|
E|-3---------------3---------------|-2---------------2---------------|-0---3-----------0---3--------|


E|-2----0---------2---0---|-------------------------5----|---------------------------------|
B|-2----------------------|-3-------0---1---3------------|-3-------------------------------|
G|-3----3-----------------|------------------------------|---------------------------------|
D|-2----------------------|---------0---------------0----|---------0---------------0-------|
A|-3----3-----------------|-----2---------------2--------|-----2-------2-------2-------2---|
E|------------------------|-3---------------3------------|-2---------------2---------------|

E|-------------------------7----|-0----0--------------|-------------------------3----|
B|-3-------0---1---3------------|-0----0---------3----|-3-------0---1---3------------|
G|------------------------------|-2----1--------------|------------------------------|
D|---------0---------------0----|---------------------|---------2---------------2----|
A|-----0---------------0--------|---------------------|-0---3-----------0---3--------|
E|-1---------------1------------|-0----0--------------|------------------------------|


E|-1-------------------------------|---------------------------------|------------------------------|
B|-----1---3---1-------------------|-0-------------------0---1---0---|-0--------------------1-------|
G|-----------------0-------2-------|---------------------------------|-----2---2--------0-------0---|
D|-------------------------0-------|---------0-----------------------|-3------------1---------------|
A|---------------------0-------0---|-----2-------2-------------------|------------------------------|
E|-1---------------1---------------|-3---------------3---------------|------------------------------|


E|-3-----1---------|---------------------------------|-0-------------------------------|
B|-1-----1----4----|---------0---1---3-----------0---|---------3---------------0-------|
G|-2-----2----2----|---------------------------------|-------------2-------2-------2---|
D|-1-----0---------|---------0---------------0-------|---------0---------------0-------|
A|------------3----|-----2---------------2-----------|-----2---------------2-----------|
E|-----------------|-3---------------3---------------|-2---------------2---------------|


E|-------------------------3----|-2----0---------2---0---|-------------------------5----|
B|-----------------0------------|-2----------------------|-3-------0---1---3------------|
G|-0-----------0-------0--------|-3----3-----------------|------------------------------|
D|------------------------------|-2----------------------|---------0---------------0----|
A|---------2---------------2----|-3----3-----------------|-----2---------------2--------|
E|-0---3-----------0---3--------|------------------------|-3---------------3------------|


E|---------------------------------|-------------------------7----|-0----0--------------|
B|-3-------------------------------|-3-------0---1---3------------|-0----0---------3----|
G|---------------------------------|------------------------------|-2----1--------------|
D|---------0---------------0-------|---------0---------------0----|---------------------|
A|-----2-------2-------2-------2---|-----0---------------0--------|---------------------|
E|-2---------------2---------------|-1---------------1------------|-0----0--------------|


E|-------------------------3----|-1-------------------------------|---------------------------------|
B|-3-------0---1---3------------|-----1---3---1-------------------|-0-------------------0---1---0---|
G|------------------------------|-----------------0-------2-------|---------------------------------|
D|---------2---------------2----|-------------------------0-------|---------0-----------------------|
A|-0---3-----------0---3--------|---------------------0-------0---|-----2-------2-------------------|
E|------------------------------|-1---------------1---------------|-3---------------3---------------|


E|--------------------|-------------------------0----|---------------------------------|
B|--------------------|-----------------0------------|-3-------------------------------|
G|-4---2---2----2-----|-0-----------2----------------|---------4---------------2-------|
D|---------4----1-----|---------2---------------2----|-----4-------4-------4-------4---|
A|-2------------2-----|-----2---------------2--------|-2---------------2---------------|
E|--------------------|-0---------------0------------|---------------------------------|


E|-------------------------2---0---|-3-------------------0---2---3---|-3-------0-----------------------|
B|-----------------0---------------|---------------------------------|-----------------1-------0-------|
G|---------0---2-------------------|---------0-----------------------|---------0---------------0-------|
D|---------2---------------2-------|-----2-------2-------------------|-----2-------2-------2-------2---|
A|-----2---------------2-----------|-0---------------0---------------|-3---------------3---------------|
E|-0---------------0---------------|---------------------------------|---------------------------------|


E|-------------------------2-------|---------------------------------|---------------------------------|
B|---------------------2-------5---|-------------------------2---3---|-1-------------------------------|
G|-3---------------2---------------|---------2-----------2-----------|---------2-------2---------------|
D|---------2-----------------------|-----4-------4-------------------|-----4-------4---0---------------|
A|-----4-------4-------------------|-2---------------2---------------|-0---------------------------0---|
E|-2---------------2---------------|---------------------------------|---------------------0---2-------|


E|---------------------------------|------------------------------|------------------------------|
B|-----------------1---------------|------------------------------|-0----------------0-----------|
G|-3-------------------2---3---2---|-2------------------------0---|-----2-------2--------2-------|
D|-1---------------1---------------|-0---------------4------------|---------0----------------0---|
A|-------------1-------------------|-------------0---5----5-------|------------------------------|
E|-----1---3-----------------------|-----0---2-------5------------|-3----------------------------|


E|------------------------------|------------------------------|-------------|
B|-1----------------1-----------|-2----------------2-----------|-1-----12----|
G|-----2-------2--------2-------|-----2-------2--------2-------|-0-----------|
D|---------2----------------2---|---------2----------------2---|-2-----------|
A|------------------------------|------------------------------|-------------|
E|-3----------------------------|-3----------------------------|-3-----------|
Login or Register to remove this ad.

1 comment on Frontier Village Dali

Awesome work! There are a few

Awesome work!

There are a few places I'd change, but nothing major at all:

---------7----|-0----0--------------|
-3------------|-0----0---------3----|
--------------|-2----1--------------|
---------0----|---------------------|
-----0--------|---------------------|
-1------------|-0----0--------------|

to

---------7----|-5----4--------------|
-3------------|-0----0---------3----|
--------------|---------------------|
---------0----|---------------------|
-----0--------|---------------------|
-1------------|-0----0--------------|

The voicing up higher seems to match a little nicer for me, but what you wrote is definitely still great sounding.

Secondly, about half way down the song it seems like we've got a note that's flat in the first measure and a missing note in the second:

from

|-------------------------2-------|---------------------------------|
|---------------------2-------5---|-------------------------2---3---|
|-3---------------2---------------|---------2-----------2-----------|
|---------2-----------------------|-----4-------4-------------------|
|-----4-------4-------------------|-2---------------2---------------|
|-2---------------2---------------|---------------------------------|

to

|-------------------------2-------|---------------------------------|
|---------------------2-------5---|-3-----------------------2---3---|
|-3---------------3---------------|---------2-----------2-----------|
|---------2-----------------------|-----4-------4-------------------|
|-----4-------4-------------------|-2---------------2---------------|
|-2---------------2---------------|---------------------------------|

Definitely favoriting this song, it's great =)