Ads

Frontier Village Dali (Final Fantasy IX) Mandolin Tab

Submitted: Jun 03, 2009 by LoneCentrist (Last updated: Feb 04, 2010)

5
Average: 5 (1 vote)
Download | Listen
Game: Final Fantasy IX
Composer(s): Nobuo Uematsu
Style: Transcription
Series: Final Fantasy

AutoScroll: Slow | Medium | Fast
Frontier Village Dali
Final Fantasy IX
Composed by Nobou Uematsu
Tabbed by Rob Van
6/2/09


E|-0-1-3----0-5--3------0----------0--8--7--5--5-7-5-3--0-1-3--10--3-|
A|-----------------5--5---5-3--3-5-----------------------------------|
D|-------------------------------------------------------------------|
G|-------------------------------------------------------------------|

E|-3--0-1-3--12--5----3--3-0-1-3-8--8-4-3-1-------0----0-1-0-0-----|
A|------------------------------------------3--5---------------5-5-|
D|-----------------------------------------------------------------|
G|-----------------------------------------------------------------|

E|-0-1-3----0-5--3------0----------0--8--7--5--5-7-5-3--0-1-3--10--3-|
A|-----------------5--5---5-3--3-5-----------------------------------|
D|-------------------------------------------------------------------|
G|-------------------------------------------------------------------|

E|-3--0-1-3--12--5----3--3-0-1-3-8--8-4-3-1-------0----0-1-0-0-----|
A|------------------------------------------3--5---------------5-5-|
D|-----------------------------------------------------------------|
G|-----------------------------------------------------------------|

E|------0--7--3--------0--7-5-8----5-7-8--5--1--0-------|
A|-3--5------------3-5-----------------------------6----|
D|------------------------------------------------------|
G|------------------------------------------------------|

E|---2-7-5-3----0-2-3-1----|
A|-5---------------------5-|
D|-------------------------|
G|-------------------------|

E|------1-------------------|
A|-6------6-5-6-5----2--3-3-|
D|--------------------------|
G|--------------------------|
Login or Register to remove this ad.