Ads

Fossil Roo (Final Fantasy IX) Guitar Tab

Submitted: Feb 01, 2015 by Exdeath

5
Average: 5 (2 votes)
Download | Listen
Game: Final Fantasy IX
Composer(s): Nobuo Uematsu
Style: Arrangement, Fingerstyle
Series: Final Fantasy

AutoScroll: Slow | Medium | Fast
  Fossil Roo                                    


                         E  E  E  E   E   E  E  E   
E||-------------------|------------------10--9--5--|
B||-------------------|--------------10------------|
G||-------------------|-----------7----------------|
D||-------------------|-----7--8-------------------|
A||-------------------|--5----------------------L--|
E||-------------------|----------------------------|


  E  E  E  E   E  E   E  E     E  E  E  E   E   E  E  E   
------------------6---------|------------------10--9--5--|
---------------------10--6--|--------------10------------|
--------------10------------|-----------7----------------|
-----------8----------------|-----7--8-------------------|
-----8--9-------------------|--5----------------------L--|
--6----------------------L--|----------------------------|


  E   E   E   E   E   E   E  E     E  E  E  E  E   E  E  E   
---------------------14--13--9--|--5-----------5--10--9--5--|
-----------------14-------------|--------6-----6------6-----|
-------------11-----------------|-----7--7--7--7------7-----|
-----11--12---------------------|-----7--8--7------7-----7--|
--9--------------------------L--|--5---------------------L--|
--------------------------------|---------------------------|


  E  E  E  E  E  E   E  E     E  E  E  E  E   E  E  E   
-----------------6---------|--5-----------5--10--9--5--|
--6-----------6-----10--6--|--------6-----6------6-----|
--------6-----6------6-----|-----7--7--7--7------7-----|
-----8--8--8--8------8-----|-----7--8--7------7-----7--|
-----8--9--8-----8------8--|--5---------------------L--|
--6---------------------L--|---------------------------|


  E  E  E  E  E  E   E  E     E  E  E  E  E  E  E  E   
-----------------6---------|--------------------------|
--6-----------6-----10--6--|-----------------------L--|
--------6-----6------6-----|--6-----6-----6-----6-----|
-----8--8--8--8------8-----|--8-----8-----8-----8-----|
-----8--9--8-----8------8--|-----8-----8-----8-----8--|
--6---------------------L--|--------------------------|


  E  E  E  E  E  E  E  E     E  E  E  E  E  E  E  E   
-----------------8--7--3--|-----------------4--------|
--------------8-----------|--------------------8--4--|
-----------5--------------|--------------8-----------|
-----5--6-----------------|-----------6--------------|
--3--------------------L--|-----6--7-----------------|
--------------------------|--4--------------------L--|


  E  E  E  E  E  E  E  E     E  E   E  E   E   E   E  E   
-----------------8--7--3--|-------------------12--11--7--|
--------------8-----------|---------------12-------------|
-----------5--------------|------------9-----------------|
-----5--6-----------------|-----9--10--------------------|
--3--------------------L--|--7------------------------L--|
--------------------------|------------------------------|


  E  E  E  E  E  E  E  E     E  E  E  E  E  E  E  E   
-----------------8--7--3--|-----------------4--------|
--------------8-----------|--------------------8--4--|
-----------5--------------|--------------8-----------|
-----5--6-----------------|-----------6--------------|
--3--------------------L--|-----6--7-----------------|
--------------------------|--4--------------------L--|


  E  E  E  E  E  E  E  E     E  E  E  E  E   E   E   E     W                 
-----------------8--7--3--|-----------------11--12--16--|--L----------------|
--------------8-----------|-----------------------------|-------------------|
-----------5--------------|-----------8--9-----------L--|-------------------|
-----5--6-----------------|-----------------------------|-------------------|
--3--------------------L--|-----6--7--------------------|-------------------|
--------------------------|--4--------L-----------------|-------------------|


  E  E  E  E   E   E  E  E     E  E  E  E   E  E   E  E   
------------------10--9--5--|------------------6---------|
--------------10------------|---------------------10--6--|
-----------7----------------|--------------10------------|
-----7--8-------------------|-----------8----------------|
--5----------------------L--|-----8--9-------------------|
----------------------------|--6----------------------L--|


  E  E  E  E   E   E  E  E     E   E   E   E   E   E   E  E   
------------------10--9--5--|---------------------14--13--9--|
--------------10------------|-----------------14-------------|
-----------7----------------|-------------11-----------------|
-----7--8-------------------|-----11--12---------------------|
--5----------------------L--|--9--------------------------L--|
----------------------------|--------------------------------|


  E  E  E  E  E   E  E  E     E  E  E  E  E  E   E  E   
--5-----------5--10--9--5--|-----------------6---------|
--------6-----6------6-----|--6-----------6-----10--6--|
-----7--7--7--7------7-----|--------6-----6------6-----|
-----7--8--7------7-----7--|-----8--8--8--8------8-----|
--5---------------------L--|-----8--9--8-----8------8--|
---------------------------|--6---------------------L--|


  E  E  E  E  E   E  E  E     E  E  E  E  E  E   E  E   
--5-----------5--10--9--5--|-----------------6---------|
--------6-----6------6-----|--6-----------6-----10--6--|
-----7--7--7--7------7-----|--------6-----6------6-----|
-----7--8--7------7-----7--|-----8--8--8--8------8-----|
--5---------------------L--|-----8--9--8-----8------8--|
---------------------------|--6---------------------L--|


  E  E  E  E  E  E  E  E     E  E  E  E  E  E  E  E   
--------------------------|-----------------8--7--3--|
-----------------------L--|--------------8-----------|
--6-----6-----6-----6-----|-----------5--------------|
--8-----8-----8-----8-----|-----5--6-----------------|
-----8-----8-----8-----8--|--3--------------------L--|
--------------------------|--------------------------|


  E  E  E  E  E  E  E  E     E  E  E  E  E  E  E  E   
-----------------4--------|-----------------8--7--3--|
--------------------8--4--|--------------8-----------|
--------------8-----------|-----------5--------------|
-----------6--------------|-----5--6-----------------|
-----6--7-----------------|--3--------------------L--|
--4--------------------L--|--------------------------|


  E  E   E  E   E   E   E  E     E  E  E  E  E  E  E  E   
-------------------12--11--7--|-----------------8--7--3--|
---------------12-------------|--------------8-----------|
------------9-----------------|-----------5--------------|
-----9--10--------------------|-----5--6-----------------|
--7------------------------L--|--3--------------------L--|
------------------------------|--------------------------|


  E  E  E  E  E  E  E  E     E  E  E  E  E  E  E  E   
-----------------4--------|-----------------8--7--3--|
--------------------8--4--|--------------8-----------|
--------------8-----------|-----------5--------------|
-----------6--------------|-----5--6-----------------|
-----6--7-----------------|--3--------------------L--|
--4--------------------L--|--------------------------|


  E  E  E  E  E   E   E   E     W                                      
-----------------11--12--16--|--L----------------|-------------------||
-----------------------------|-------------------|-------------------||
-----------8--9-----------L--|-------------------|-------------------||
-----------------------------|-------------------|-------------------||
-----6--7--------------------|-------------------|-------------------||
--4--------L-----------------|-------------------|-------------------||
Login or Register to remove this ad.