Dissipating Sorrow (Final Fantasy IX) Guitar Tab

Submitted: Jan 29, 2014 by SixStringDealey

5
Average: 5 (1 vote)
Download | Listen
Game: Final Fantasy IX
Composer(s): Nobuo Uematsu
Style: 2 or more instruments, Transcription
Series: Final Fantasy

This song is also called Unforgettable Sorrow

AutoScroll: Slow | Medium | Fast
                              UNFORGETTABLE SORROW
                          As recorded by Nobuo Uematsu
               (From the 2002 Album FFIX UEMATSU'S BEST SELECTION)

Music by Nobuo Uematsu
Arranged / Transcribed by Alex Cowan

Gtr I (E A D G B E) - 'Classical Chords':
Gtr II (E A D G B E) - 'Classical Leads'
Gtr III (E A D G B E) - 'Flute Right'
Gtr IV (E A D G B E) - 'Flute Left'

3/4 Timing | Tempo = ~92

  Gtr I (Chords are slowly strummed and held for the duration of each measure)
  Em               Bm              G                A

  Gtr II (Leads)
   Q.       E Q    Q.       E Q    Q.        E Q    Q.       E Q
|-/3--------2-0--|-2--------3-5--|-7--------10-7--|-5--------3-0--|
|----------------|---------------|----------------|---------------|
|----------------|---------------|----------------|---------------|
|----------------|---------------|----------------|---------------|
|----------------|---------------|----------------|---------------|
|----------------|---------------|----------------|---------------|


  C               Bm            Am7             Bm

  Q.       E Q    H        Q    Q.       E Q    Q.       E Q
|-3--------2-0--|-2--------7--|-3--------2-0--|-2-------------|
|---------------|-------------|---------------|------------3--|
|---------------|-------------|---------------|----------4----|
|---------------|-------------|---------------|---------------|
|---------------|-------------|---------------|---------------|
|---------------|-------------|---------------|---------------|


  Em              Bm              G                A

  Q.       E Q    Q.       E Q    Q.        E Q    Q.       E Q
|-3--------2-0--|-2--------3-5--|-7--------10-7--|-5--------3-0--|
|---------------|---------------|----------------|---------------|
|---------------|---------------|----------------|---------------|
|---------------|---------------|----------------|---------------|
|---------------|---------------|----------------|---------------|
|---------------|---------------|----------------|---------------|


  C               Bm            Esus4         E

  Q.       E Q    Q     Q  Q    H.            +H.
|-3--------2-0--|-2-----0-----|-0-----------|-(0)----------|
|---------------|----------3--|-------------|--------------|
|---------------|-------------|-------------|--------------|
|---------------|-------------|-------------|--------------|
|---------------|-------------|-------------|--------------|
|---------------|-------------|-------------|--------------|


  Em                   Bm               G                   A

   Q.        E  Q       Q.       E Q    Q.        E  Q       Q.       E Q
|-/3---------2--0----|--2--------3-5--|-7--------10--7----|--5--------3-0--|
|--------------------|----------------|-------------------|----------------|
|--------------------|----------------|-------------------|----------------|
|--------------------|----------------|-------------------|----------------|
|--------------------|----------------|-------------------|----------------|
|--------------------|----------------|-------------------|----------------|
|
| Gtr III (Flute Right)
|  E   E  E  E  E  E    H.              E   E  E  E  E  E    H.
|--------12-15-14-12-|----------------|-------15-19-17-15-|-17-------------|
|-----12-------------|-15-------------|----15-------------|----------------|
|--------------------|----------------|-------------------|----------------|
|--------------------|----------------|-------------------|----------------|
|--------------------|----------------|-------------------|----------------|
|--------------------|----------------|-------------------|----------------|


  C                   Bm              Am7                 Bm

  Q.        E  Q       H         Q    Q.        E  Q       Q.        E  Q
|-3---------2--0----|--2---------7--|-3---------2--0----|--2---------------|
|-------------------|---------------|-------------------|---------------3--|
|-------------------|---------------|-------------------|------------4-----|
|-------------------|---------------|-------------------|------------------|
|-------------------|---------------|-------------------|------------------|
|-------------------|---------------|-------------------|------------------|
|
| E   E  E  E  E  E    Q     Q   Q    E   E  E  E  E  E    Q.        E  Q
|-------12-15-14-12-|---------------|----------17p15----|-14---------------|
|----13-------------|-15----12--12--|-------17-------17-|-----------17-15--|
|-------------------|---------------|----17-------------|------------------|
|-------------------|---------------|-------------------|------------------|
|-------------------|---------------|-------------------|------------------|
|-------------------|---------------|-------------------|------------------|


  Em                   Bm		  G                    A

   Q.        E  Q       Q.        E  Q     Q.        E  Q       Q.        E  Q
|--3---------2--0----|--2---------3--5--|--7--------10--7----|--5---------3--0--|
|--------------------|------------------|--------------------|------------------|
|--------------------|------------------|--------------------|------------------|
|--------------------|------------------|--------------------|------------------|
|--------------------|------------------|--------------------|------------------|
|--------------------|------------------|--------------------|------------------|
|
|  E   E  E  E  E  E    H.		  E   E  E  E  E  E    H.
|--------12-15-14-12-|------------------|--------15-19-17-15-|-17---------------|
|-----12-------------|-15---------------|-----15-------------|------------------|
|--------------------|------------------|--------------------|------------------|
|--------------------|------------------|--------------------|------------------|
|--------------------|------------------|--------------------|------------------|
|--------------------|------------------|--------------------|------------------|
|
| Gtr IV (Flute Left)
|  Q.        E  Q       Q.        E  Q    Q.        E  Q       Q.        E  Q
|-15--------14-12----|-14--------15-17--|-19--------22-19----|-17--------15-12--|
|--------------------|------------------|--------------------|------------------|
|--------------------|------------------|--------------------|------------------|
|--------------------|------------------|--------------------|------------------|
|--------------------|------------------|--------------------|------------------|
|--------------------|------------------|--------------------|------------------|


  C                    Bm              Esus4          E

   Q.        E  Q       Q     Q   Q     H.              H         E E
|--3---------2--0----|--2-----0------|--0-----------|---0---------3-5-|
|--------------------|------------3--|--------------|-----------------|
|--------------------|---------------|--------------|-----------------|
|--------------------|---------------|--------------|-----------------|
|--------------------|---------------|--------------|-----------------|
|--------------------|---------------|--------------|-----------------|
|
|  E   E  E  E  E  E    Q     Q   Q     H.             +H.
|--------12-15-14-12-|-----------14--|-12-----------|-(12)------------|
|-----13-------------|-15----12------|--------------|-----------------|
|--------------------|---------------|--------------|-----------------|
|--------------------|---------------|--------------|-----------------|
|--------------------|---------------|--------------|-----------------|
|--------------------|---------------|--------------|-----------------|
|
|  Q.        E  Q       Q     Q   Q     H.             +H.
|-15--------14-12----|-14----12------|-12-----------|-(12)------------|
|--------------------|-----------15--|--------------|-----------------|
|--------------------|---------------|--------------|-----------------|
|--------------------|---------------|--------------|-----------------|
|--------------------|---------------|--------------|-----------------|
|--------------------|---------------|--------------|-----------------|


  G                C                 D                 D/C

  Q.        E Q     Q.        E Q     Q.       E E E    Q.         E   E  E
|-7--------10-7--|--7--------------|-----------------|--5----------5---7--5---|
|----------------|-----------10-8--|--7--------5-7-8-|------------------------|
|----------------|-----------------|-----------------|------------------------|
|----------------|-----------------|-----------------|------------------------|
|----------------|-----------------|-----------------|------------------------|
|----------------|-----------------|-----------------|------------------------|
*String Section begins here. 


  Em              Bm                C         C/F      B

   Q      Q  Q     Q.       E E E   Q     Q    Q        H         E E
|--3------0--3--|--2--------2-0---|-2-----3----5-----|--7-----------5-|
|---------------|---------------3-|------------------|------------8---|
|---------------|-----------------|------------------|----------------|
|---------------|-----------------|------------------|----------------|
|---------------|-----------------|------------------|----------------|
|---------------|-----------------|------------------|----------------|


  G                C                 D                 D/C

  Q.        E Q     Q.        E Q     Q.       E E E    Q.         E   E  E
|-7--------10-7--|--7--------------|-----------0-2-3-|--5----------5---7--5-|
|----------------|-----------10-8--|--7--------------|----------------------|
|----------------|-----------------|-----------------|----------------------|
|----------------|-----------------|-----------------|----------------------|
|----------------|-----------------|-----------------|----------------------|
|----------------|-----------------|-----------------|----------------------|


  Em              Bm                A               Bm

  Q      Q   Q     Q.       E E E     H.             +H           Q
|-3------0---3--|--2--------2-0---|---0-----------|--(0)--------------|
|---------------|---------------3-|---------------|---------------3---|
|---------------|-----------------|---------------|-------------------|
|---------------|-----------------|---------------|-------------------|
|---------------|-----------------|---------------|-------------------|
|---------------|-----------------|---------------|-------------------|


  A              (A)

   H.             +H.
|--0-----------|--(0)----|
|--------------|---------|
|--------------|---------|
|--------------|---------|
|--------------|---------|
|--------------|---------|
*This is the end. Loop from here as many times as you'd like. Fade out
with the first 8 bars to match the recording.

Rhythm Guitar Chords Used:
          Em                   Bm                    G                    A
      0 2 2 0 0 0          x 2 4 4 3 x          3 2 0 0 0 3          x 0 2 2 2 0

           C                   Am7                 Esus4                  E
      x 3 5 5 5 x          x 0 2 0 1 0          0 2 2 2 0 0          0 2 2 1 0 0

           D                   D/C                  C/F                   B
      x x 0 2 3 2          x 3 x 2 3 2          x x 3 5 5 x          x 2 4 4 4 x

***************************************************************************************
* Generated using Power Tab Editor by Brad Larsen - http://powertab.guitarnetwork.org *
***************************************************************************************

Duration Legend
---------------
W - whole; H - half; Q - quarter; E - 8th; S - 16th
+ - note tied to previous; . - note dotted; .. - note double dotted
Duration letters with no fret number below them represent rests.

Tablature Legend
----------------
 h   - hammer-on
 p   - pull-off
 /\  - slide into or out of (from/to "nowhere")
 ~   - vibrato

Misc Legend
-----------
 |  - bar
||  - double bar
||o - repeat start
o|| - repeat end
*|  - double bar (ending)


Whew. Seems a bit cluttered to me with the note durations, but I thought I'd include them 
for the sake of accuracy. Let me know what you think in the comments and based on feedback
I will either continue to include them or leave them out of future tabs. The String Section
has been tabbed in detail within the power tab, but with an accuracy over playability 
mind-set. Some chords are not playable as written, but check the power tab or midi if you 
are curious. :D I haven't even played FFIX. I just loved the song. xD





Login or Register to remove this ad.