Ads

Dissipating Sorrow (Final Fantasy IX) Guitar Tab

Submitted: Oct 07, 2012 by TheDoomOfAllFires (Last updated: Oct 08, 2012)

5
Average: 5 (7 votes)
Download | Listen
Game: Final Fantasy IX
Composer(s): Nobuo Uematsu
Style: Arrangement, Fingerstyle
Series: Final Fantasy

AutoScroll: Slow | Medium | Fast
Title: Dissipating Sorrow
Artist: Nobuo Uematsu
Album: Final Fantasy IX
Music: Nobuo Uematsu
Copyright: Nobuo Uematsu
Tabber: TheDoomOfAllFires
Tempo = 95
Steel Guitar



      Q.     E   Q       Q.     E   Q       Q.      E   Q     
E||---3------2p--0----|--2------3h--5----|--7------10p--7----|
B||---0---------------|--3---------------|--0----------------|
G||*--0---------------|--2---------------|--0----------------|
D||*--2---------------|--0---------------|-------------------|
A||---2---------------|------------------|-------------------|
E||---0---------------|------------------|--3----------------|


  Q.     E   Q       Q.     E   Q       Q    E   E  Q        Q.     E   Q     
--5------3p--0----|--3------2p--0----|--2-----------7~----|--3------2p--0----|
------------------|--5---------------|--------------------|--1---------------|
--2---------------|--0---------------|-------4s--7--------|--2---------------|
--2---------------|------------------|--------------------|------------------|
--0---------------|--3---------------|--2-----------------|--0---------------|
------------------|------------------|--------------------|------------------|


  Q.     E  Q         Q    Q    Q       H.              H.            
------------------||--2----0---------|--0------------|---------------|
--3---------3-----||--0---------3----|--0------------|---------------|
---------4-------*||-----------------|--2------------|--0------------|
-----------------*||-----------------|--2------------|--2------------|
--2---------------||--2--------------|---------------|--2------------|
------------------||-----------------|---------------|--0------------|


  E  E  E  E  E  E     E  E  E  E  Q       E  E  E  E  E  E   
--------0--3--2--0--|--2----------------|--------3--7--5--3--|
-----0--------------|--------3----------|-----3--------3-----|
--------------0-----|--------------2----|--------4-----------|
--------2-----------|-----4-----4-------|--------------------|
--------------------|--2----------------|--------------------|
--0-----------------|-------------------|--3-----------------|


  E  E  E  E  Q       E  E  E  E  E  E     Q    Q    Q       E  E  E  E  E  E   
--5-----2----------|--------0--3--2--0--|--2----0---------|--------0--5--3--0--|
--3-----3----------|-----1--------1-----|--0---------3----|-----1--------5-----|
-----2-----2-------|--------0-----------|------------0----|--------0-----------|
--0-----------0----|--------------------|-----------------|--------------------|
-------------------|--3-----------------|--2--------------|--3-----------------|
-------------------|--------------------|-----------------|--------------------|


  E  E  E  E  Q       E  E  E  E  E  E     E  E  Q    Q     
--2-----0----------|--3--------3--2--0--|--2-----3----5----|
--0-----0-----3----|--------------------|--------3----3----|
--------------2----|--------------------|-----2------------|
-----4-----4-------|--------2--4--------|--0---------------|
--2----------------|-----2--------------|------------------|
-------------------|--0-----------------|------------------|


  E  E  E   E   Q       E  E  E   E  E  E     E  E  E  E   Q     
--7--------10p--7----|--5-----0h--2--------|--3--------2p--0----|
---------------------|---------------3-----|--------------------|
--------0------------|-----2------------2--|--------0-----------|
-----0---------------|--0------------------|-----2--------------|
---------------------|---------------------|--3-----------------|
--3------------------|---------------------|--------------------|


  E  E  Q    Q       E  E  E  E  E  E     E  E  E  E  E  E   
--2-----0---------|--0--------0--------|-----------0--3--5--|
--------0----3----|--------0-----0-----|--------0-----------|
------------------|-----2-----------2--|-----0--------------|
-----4------------|--------------------|--------------------|
--2---------------|--------------------|--------------------|
------------------|--0-----------------|--0-----------------|


    E  E  E   E   E  E     E  E  E  E   E  E     E  E  E  E  E   E   
|---7--------10p--7-----|--7-----0--5p--3--0--|--2--------0--2h--3--|
|-----------------------|---------------------|--------3-----3------|
|*--------0-------------|-----0---------------|---------------------|
|*-----0-------------0--|---------------------|--0-----0------------|
|-----------------------|--3------------------|-----0---------------|
|---3-------------------|---------------------|---------------------|


  E  E  E  E  E   E     E  E  E  E  Q       E  E  E  E   E  E   
--5--------5--7p--5--|--3-----0-----3----|--2--------2p--0-----|
--------0------------|-------------------|--------0---------3--|
---------------------|-----0-------------|---------------------|
-----7---------------|--2--------2-------|-----4---------------|
--6------------------|-------------------|--2------------------|
---------------------|-------------------|---------------------|


  E  E  E  E  E  E     H        E   E       E  E  E  E   E  E   
--2-----3-----5-----|--7--------3h--5---||--2--------2p--0-----|
--------------------|--0--------3-------||--------0---------3--|
--------------0--2--|------------------*||---------------------|
-----0--2--4--------|------------------*||-----4---------------|
--3-----------------|-------------------||--2------------------|
--------------------|-------------------||---------------------|


  E  E  E  E  E  E     E  E  E  E  E  E     H.             
--0-----------0--3--|--2-----------------|--0------------||
-----------1--------|--------------3-----|--0------------||
--------2-----------|--------4--------4--|--0------------||
-----2--------------|-----4-----4--------|---------------||
--0-----------------|--2-----------------|--3------------||
--------------------|--------------------|---------------||



Legend
L - tied note
x - dead note
h - hammer on/pull off
b - bend
s - slide
~ - vibrato
g - ghost note
> - accentuated note
t - trill
M - palm mute
. - staccato
P - popping (bass)
S - slapping (bass)
+ - tapping
W - wide vibrato
< - fade in
w - whammy bar
= - tremolo picking
v - brush up
^ - brush down
V - pick stroke up
n - pick stroke down


Login or Register to remove this ad.

2 comments on Dissipating Sorrow

beautiful tune & tab

5

I adore it but I'd prefer if u can submit later :

- a new .txt file including the notation
- a new midi file playing hammer/pull/slide effect

Sorry to be so demanding but I can't do it myself since I just can't open GP6 file T_T

Thanks sir TheDoomOfAllFires

Updated ! There's an new tab

Updated ! There's an new tab with notations and a new midi file on the website (haven't replaced them in the archive, though), plus a GP5 tab, for those who can't open GPX files. ^^