Ads

Cleyra Settlement (Final Fantasy IX) Guitar Tab

Submitted: Sep 09, 2013 by Colin_spade

5
Average: 5 (4 votes)
Download | Listen
Game: Final Fantasy IX
Composer(s): Nobuo Uematsu
Style: Arrangement, Fingerstyle
Series: Final Fantasy

AutoScroll: Slow | Medium | Fast
Cleyra Settlement                                 


                                                                   Nobuo Uematsu
Track 1 (Capo 3)



     E  E  E  E  E  E     E  E  E  Q    E     E  E  E  E  E  E   
E||--0-----0--2-----2--|--0-----0--0-------|--0-----0--5--2--5--|
B||-----2--------3-----|-----2-------------|-----2--------------|
G||--------------------|-------------------|--------------------|
D||-----------0--------|-------------------|--------------------|
A||--0-----------------|--0--------0-------|--0-----------------|
E||--------------------|-------------------|-----------2--------|


  E  E  E  Q    E     E  E  E  E  E  E     E  E  E  Q    E   
--4-----4--4-------|-----------0-----0--|-------------------|
-----5-------------|--3-----3-----2-----|--3-----3--3-------|
-------------------|-----4-----0--------|-----4-------------|
-------------------|--4-----------------|--4----------------|
--4--------4-------|--2--------4--------|--2----------------|
-------------------|--------------------|-------------------|


  E  E  E  Q    E     E  E  E  Q    E     E  E  E  E  E  E   
-----------2----0--|-------------------|--0-----0--2-----2--|
--3-----3----------|--3--2--0--2-------|-----2--------3-----|
-----4-------------|-------------------|--------------------|
--4--------0-------|--2----------------|-----------0--------|
--2----------------|--0----------------|--0-----------------|
-----------0-------|-------------------|--------------------|


  E  E  E  Q    E     E  E  E  E  E  E     E  E  E  Q    E   
--0-----0--0-------|--0-----0--5--2--5--|--4-----4--4-------|
-----2-------------|-----2--------------|-----5-------------|
-------------------|--------------------|-------------------|
-------------------|--------------------|-------------------|
--0--------0-------|--0-----------------|--4--------4-------|
-------------------|-----------2--------|-------------------|


  E  E  E  E  E  E     E  E  E  Q    E     E  E  E  Q    E   
-----------0-----0--|-------------------|-----------2----0--|
--3-----3-----2-----|--3-----3--3-------|--3-----3----------|
-----4-----0--------|-----4-------------|-----4-------------|
--4-----------------|--4----------------|--4--------0-------|
--2--------4--------|--2----------------|--2----------------|
--------------------|-------------------|-----------0-------|


  E  E  E  Q    E     E  E  E  E  E  E     E  E  E  Q    E   
-------------------|--2-----2--5--2--5--|--4--2--4--5-------|
--3--2--0--2-------|-----3--------------|-------------------|
-------------------|--------------------|-------------------|
--2----------------|--0-----------------|--2----------------|
--0----------------|-----------2--------|-----------0-------|
-------------------|--------------------|-------------------|


  E  E  E  E  E  E     E  E  E  Q    E     E  E  E  E  E  E   
--2--4--5-----------|--0----------------|--2-----2--5--2--5--|
-----------3--2--0--|-----3--0--2-------|-----3--------------|
--------------------|-------------------|--------------------|
--0-----------------|--2----------------|--0-----------------|
-----------2--------|-----------0-------|-----------2--------|
--------------------|-------------------|--------------------|


  E  E  E  Q    E     E  E  E  E  E  E     Q.     Q.        Q.     Q.        
--4--2--4--5-------|--2--4--5--5--4-----|--7-------------|---------L-------||
-------------------|-----------------7--|----------------|-----------------||
-------------------|--------------------|----------------|----------------*||
--2----------------|-----------1--------|---------0------|----------------*||
-----------0-------|--4--------2--------|--7-------------|--4------2-------||
-------------------|--2-----------------|----------------|-----------------||




Duration Legend
---------------
W - whole
H - half
Q - quarter
E - 8th
S - 16th
T - 32nd
X - 64th
. - note dotted
|-n-|  - n-tuplets


Tablature Legend
----------------
L - tied note
x - dead note
g - grace note
(n) - ghost note
> - accentuded note
NH - natural harmonic
AH - artificial harmonic
TH - tapped harmonic
SH - semi harmonic
PH - pitch harmonic
h - hammer on
p - pull off
b - bend
br - bendRelease
pb - preBend
pbr - preBendRelease
brb - bendReleaseBend
\n/ - tremolo bar dip
\n - tremolo bar dive
-/n - tremolo bar Release up
/n\ - tremolo bar inverted dip
/n - tremolo bar return
-\n - tremolo bar Release down
S - shift slide
s - legato slide
/ -  slide into from below or out of upwards
\ -  slide into from above or out of downwards
~ - vibrato
W - wide vibrato
tr - trill
TP - tremolo picking
T - tapping
S - slap
P - pop
< - fade in
^ - brush up
v - brush down
Login or Register to remove this ad.

1 comment on Cleyra Settlement

Nice! I add in all of the

Nice! I add in all of the filler notes too:

     E  E  E  E  E  E     E  E  E  Q    E     E  E  E  E  E  E   
E||--0-----0--2-----2--|--0-----0--0-------|--0-----0--5--2--5--|
B||-----2--------3-----|-----2-------------|-----2----(2)-------|
G||-(2)------(2)-------|-(2)------(2)------|-(2)----------------|
D||-----------0--------|-------------------|--------------------|
A||--0-----------------|--0--------0-------|--0-----------------|
E||--------------------|-------------------|-----------2--------|

And so on.