Ads

Cleyra Settlement (Final Fantasy IX) Guitar Tab

Submitted: Jul 07, 2009 by mighty21 (Last updated: Feb 04, 2010)

0
Download | Listen
Game: Final Fantasy IX
Composer(s): Nobuo Uematsu
Style: Transcription
Series: Final Fantasy

AutoScroll: Slow | Medium | Fast
Cleyra Settlement
Final Fantasy IX
Composed by Nobuo Uematsu
Tabbed by Mighty 
7/07/09

e--------------------------------------------------
B---3---3-5--5-3---3-3----3----3-8---8--7---7--7---
G-----4----4-----4-----------4-----7------7--------
D--------------------------------------------------
A--------------------------------------------------
E--------------------------------------------------

e--------------------------------------------------
B---1--1-3---3-1---1-1----1---1--5-5---------------
G----2-----2-----2----------2--------5-4-3-4-------
D--------------------------------------------------
A--------------------------------------------------
E--------------------------------------------------

e--------------------------------------------------
B--5--5-8-----8-7-5--7- 8-------------------------- 
G---5------7---------------------------------------
D--------------------------------------------------
A--------------------------------------------------
E--------------------------------------------------

e--------------------------------------------------
B--5--7-8--------3--1------------------------------ 
G---------5-4-2--------2---4-----------------------
D--------------------------------------------------
A--------------------------------------------------
E--------------------------------------------------

e--------------------------------------------------
B--5--5-8-----8-7-5--7- 8-------------------------- 
G---5------7---------------------------------------
D--------------------------------------------------
A--------------------------------------------------
E--------------------------------------------------

e-------------------------5--3--2------------------
B--5--7-8-8--7----5-------------------------------- 
G--------------------------------------------------
D--------------------------------------------------
A--------------------------------------------------
E--------------------------------------------------

Login or Register to remove this ad.