Ads

Cid's Theme (Duet) (Final Fantasy IX) Guitar Tab

Submitted: May 09, 2012 by TheDoomOfAllFires

5
Average: 5 (2 votes)
Download | Listen
Game: Final Fantasy IX
Composer(s): Nobuo Uematsu
Style: 2 or more instruments, Arrangement
Series: Final Fantasy

AutoScroll: Slow | Medium | Fast
Final Fantasy IX - Cid's Theme (Duet)
Nobuo Uematsu / TheDoomOfAllFires, 05/09/2012
BPM=80
Standard tuning

Hope you like it ! ^^



Guitar #1:


E |--8-----8h-10-8-----8h-10---|--8-----8h-10-8--12-10-7----|
B |--10----------10------------|--10----------10------------|
G |-----9----------------------|-----9----------------------|
D |----------------------------|----------------------------|
A |----------------------------|----------------------------|
E |----------------------------|----------------------------|


--8-----8h-10-8-----8h-10---|--8-----8h-10-8--7----------|
--10----------10------------|--10----------10----8-------|
-----9----------------------|-----9-----------------9----|
----------------------------|----------------------------|
----------------------------|----------------------------|
----------------------------|----------------------------|


--8-----8h-10-8-----8h-10---|--8-----8h-10-8--12-10-7----|-----------8----|
--10----------10------------|--10----------10------------|--10-------10---|
-----9----------------------|-----9----------------------|--10------------|
----------------------------|----------------------------|----------------|
----------------------------|----------------------------|----------------|
----------------------------|----------------------------|----------------|


--7-------------|-------|----|----|----||-15-------14-12-------10---|
--8-----8-------|-------|----|----|----||-------10------------------|
--7--------9----|--9~---|----|----|----||o---9----------------------|
----------------|-------|----|----|----||o---------------9--10------|
----------------|-------|----|----|----||---------------------------|
----------------|-------|----|----|----||---------------------------|


--12----------------------------------12----------------12----------------12h---
--------------------------------------------------------------------------------
--------------------------------------------------------------------------------
--------------------------------------------------------------------------------
--------------------------------------------------------------------------------
--------------------------------------------------------------------------------


14h---12----------------------12-------------------------12---------|
------------15----------------------------------13------------------|
---------------------------------------14---------------------------|
--------------------------------------------------------------------|
--------------------------------------------------------------------|
--------------------------------------------------------------------|


--15-------14-12-------10---|
--------10------------------|
-----9----------------------|
-----------------9--10------|
----------------------------|
----------------------------|


--12----------------------------------12----------------12----------------12h---
--------------------------------------------------------------------------------
--------------------------------------------------------------------------------
--------------------------------------------------------------------------------
--------------------------------------------------------------------------------
--------------------------------------------------------------------------------


14h---12----------------------12-------------------------12---------|
------------15----------------------------------13------------------|
---------------------------------------14---------------------------|
--------------------------------------------------------------------|
--------------------------------------------------------------------|
--------------------------------------------------------------------|


--15-------13-12-------10---|
----------------------------|
-----10-9-------------------|
-----------------10-9-------|
----------------------------|
----------------------------|


--12----------------------------------12----------------12----------------12h---
--------------------------------------------------------------------------------
--------------------------------------------------------------------------------
--------------------------------------------------------------------------------
--------------------------------------------------------------------------------
--------------------------------------------------------------------------------


13h---12----------------------12-------------------------12---------|
------------15----------------------------------13------------------|
---------------------------------------14---------------------------|
--------------------------------------------------------------------|
--------------------------------------------------------------------|
--------------------------------------------------------------------|


--10-------7--8--------5~---|-----------5-----------12--||--12------------|----|
--------10----------5-------|--------5------------------||-----12-13~-----|----|
-----9-----------5----------|-----4-----------4--5-----o||----------------|----|
----------------------------|--------------7-----------o||----------------|----|
----------------------------|--0------------------------||----------------|----|
----------------------------|---------------------------||----------------|----|


--7--------------------9----|--12h9----------------------|
--8-----8-----10----10------|--------10----10-------8----|
--9--------------9----------|-----------9----------------|
----------------------------|----------------------------|
----------------------------|----------------------------|
----------------------------|----------------------------|


--------------8-------------|-------|----------------|----------|-------||
--10-------12-------12-10---|-------|--8-------------|----------|-------||
----------------------------|--10~--|-----9--11------|--11-11---|--11~--||
----------------------------|-------|----------------|----------|-------||
----------------------------|-------|----------------|----------|-------||
----------------------------|-------|----------------|----------|-------||

__________________________________________________________________________
__________________________________________________________________________
__________________________________________________________________________

Guitar #2 :



E |----------------------------|----------------------------|
B |--1-----------1-------------|--1-----------1-----3-------|
G |--------2-----------2-------|--------2--------------0----|
D |-----2-----2-----2-----2----|-----2-----2-----2----------|
A |--0-----------0-------------|--0-----------0-------------|
E |----------------------------|--------------------3-------|


----------------------------|----------------------------|
--1-----------1-------------|--1-----------1--0----------|
--------2-----------2-------|--------2-----------0-------|
-----2-----2-----2-----2----|-----2-----2----------------|
--0-----------0-------------|--0-----------0--------2----|
----------------------------|--------------------3-------|


----------------------------|----------------------------|
--1-----------1-------------|--1-----------1-----3-------|
--------2-----------2-------|--------2--------------0----|
-----2-----2-----2-----2----|-----2-----2-----2----------|
--0-----------0-------------|--0-----------0-------------|
----------------------------|--------------------3-------|


----------------------------|----------|--0-------------------------|
-----------------------1----|--3--0----|--1--------0--1-------------|
-----------2--------0-------|--0--0----|--------2-----------2-------|
--------3--------3----------|-----0----|-----2-----------2-----2----|
-----3--------3-------------|----------|--0-----------0-------------|
--1-------------------------|--3-------|----------------------------|


----------------------------|----------------------------|
--1--------0--1-----3h-0----|-----------0--1-------------|
--------2--------2----------|--------2-----------2-------|
-----2----------------------|-----2-----------2-----2----|
--0-----------0-------------|--0-----------0-------------|
--------------------3-------|----------------------------|


-----------------------0----||-3--------2--0-------------|
--1--------0--1-----3--0----||----------------------3----|
--------2--------2-----0----||o------2-----------2-------|
-----2-----------------2----||o---2-----------2----------|
--0-----------0-------------||-0-----------0-------------|
--------------------3-------||---------------------------|


--0--------0--0-------------|--3--------2--0-------------|
--------------------3-------|-----------------------3----|
--------2-----------2-------|--------2-----------2-------|
-----2-----------2----------|-----2-----------2----------|
--0-----------0-------------|--0-----------0-------------|
--------------------3-------|----------------------------|


--0--------0--0-------------|--3--------1--0-------------|
--------------------3-------|--------------1--------3----|
--------2-----------2-------|--------2-------------------|
-----2-----------2----------|-----------------2--3-------|
--0-----------0-------------|-----3----------------------|
--------------------3-------|--1-----------1-------------|


--0-----------0-------------|----------------------------|
--------------0-------------|--3--------0--1--------0----|
-----------2-----2----------|--------2-----------2-------|
--------3-----------3-------|-----2-----------2----------|
-----3-----------------3----|--0-----------0-------------|
--1-------------------------|----------------------------|


---------------------------||-------|----------------------------|
--1--------------------1---||--0----|----------------------------|
--------2-----------2-----o||--2----|----------------------------|
-----2-----2-----2--------o||--3----|--------------------0--3----|
--0-----------0------------||--3----|-----------0--2--3----------|
---------------------------||--1----|-----1--3-------------------|


----------------|----------------|----------------------------|
--0-------------|----------------|-----------0--1-----0-------|
--0--0--2L------|--2-----2--0----|--2--------------------2----|
--------2L------|--2--2----------|--------3-------------------|
--2-----0L------|--0-------------|-----3-----------3----------|
----------------|----------------|--1-----------1-------------|


----------------------------|--3--------------------2----|
----------------------------|--0-----------3-----3-------|
----------------------------|--0--------------2----------|
--3-----------------0--3----|--2-----------0-------------|
-----------0--2--3----------|----------------------------|
-----1--3-------------------|----------------------------|


--5-----------10------------|--10---||
-----7-----7-----10----10---|-------||
--------7-----------11------|-------||
----------------------------|-------||
----------------------------|-------||
----------------------------|-------||




Legend
L - tied note
x - dead note
h - hammer on/pull off
b - bend
s - slide
~ - vibrato
g - ghost note
> - accentuated note
t - trill
M - palm mute
. - staccato
P - popping (bass)
S - slapping (bass)
+ - tapping
W - wide vibrato
< - fade in
w - whammy bar
= - tremolo picking
v - brush up
^ - brush down
V - pick stroke up
n - pick stroke down

Login or Register to remove this ad.

2 comments on Cid's Theme (Duet)

I really like this song, nice

5

I really like this song, nice arrangement man

YOU'RE NOT DEAD?!

5

YOU'RE NOT DEAD?!